  0
SECTION
  2
HEADER
  9
$ACADVER
  1
AC1021
  9
$ACADMAINTVER
 70
    25
  9
$DWGCODEPAGE
  3
ANSI_1252
  9
$COMMENTS
  1
Chief Architect X2; Version 12.6.0.25; Chief Architect, Inc.; 2009
  9
$INSBASE
 10
0.0
 20
0.0
 30
0.0
  9
$EXTMIN
 10
0.0
 20
1.0
 30
0.0
  9
$EXTMAX
 10
1.0
 20
0.0
 30
0.0
  9
$LIMMIN
 10
0.0
 20
0.0
  9
$LIMMAX
 10
12.0
 20
9.0
  9
$ORTHOMODE
 70
     0
  9
$REGENMODE
 70
     1
  9
$FILLMODE
 70
     1
  9
$QTEXTMODE
 70
     0
  9
$MIRRTEXT
 70
     1
  9
$LTSCALE
 40
96.0
  9
$ATTMODE
 70
     1
  9
$TEXTSIZE
 40
0.2
  9
$TRACEWID
 40
0.05
  9
$TEXTSTYLE
  7
Standard
  9
$CLAYER
  8
0
  9
$CELTYPE
  6
ByLayer
  9
$CECOLOR
 62
   256
  9
$CELTSCALE
 40
1.0
  9
$DISPSILH
 70
     0
  9
$DIMSCALE
 40
1.0
  9
$DIMASZ
 40
5.0
  9
$DIMEXO
 40
3.0
  9
$DIMDLI
 40
0.38
  9
$DIMRND
 40
0.0
  9
$DIMDLE
 40
0.0
  9
$DIMEXE
 40
3.0
  9
$DIMTP
 40
0.0
  9
$DIMTM
 40
0.0
  9
$DIMTXT
 40
6.0
  9
$DIMCEN
 40
0.09
  9
$DIMTSZ
 40
0.0
  9
$DIMTOL
 70
     0
  9
$DIMLIM
 70
     0
  9
$DIMTIH
 70
     0
  9
$DIMTOH
 70
     0
  9
$DIMSE1
 70
     0
  9
$DIMSE2
 70
     0
  9
$DIMTAD
 70
     0
  9
$DIMZIN
 70
     0
  9
$DIMBLK
  1

  9
$DIMASO
 70
     1
  9
$DIMSHO
 70
     1
  9
$DIMPOST
  1

  9
$DIMAPOST
  1

  9
$DIMALT
 70
     0
  9
$DIMALTD
 70
     0
  9
$DIMALTF
 40
1.0
  9
$DIMLFAC
 40
1.0
  9
$DIMTOFL
 70
     0
  9
$DIMTVP
 40
0.0
  9
$DIMTIX
 70
     0
  9
$DIMSOXD
 70
     0
  9
$DIMSAH
 70
     0
  9
$DIMBLK1
  1

  9
$DIMBLK2
  1

  9
$DIMSTYLE
  2
Standard
  9
$DIMCLRD
 70
     0
  9
$DIMCLRE
 70
     0
  9
$DIMCLRT
 70
     0
  9
$DIMTFAC
 40
1.0
  9
$DIMGAP
 40
0.5
  9
$DIMJUST
 70
     0
  9
$DIMSD1
 70
     0
  9
$DIMSD2
 70
     0
  9
$DIMTOLJ
 70
     1
  9
$DIMTZIN
 70
     0
  9
$DIMALTZ
 70
    12
  9
$DIMALTTZ
 70
     0
  9
$DIMUPT
 70
     0
  9
$DIMDEC
 70
     4
  9
$DIMTDEC
 70
     4
  9
$DIMALTU
 70
     2
  9
$DIMALTTD
 70
     2
  9
$DIMTXSTY
  7
Standard
  9
$DIMAUNIT
 70
     0
  9
$DIMADEC
 70
     0
  9
$DIMALTRND
 40
0.0
  9
$DIMAZIN
 70
     0
  9
$DIMDSEP
 70
    46
  9
$DIMATFIT
 70
     3
  9
$DIMFRAC
 70
     2
  9
$DIMLDRBLK
  1

  9
$DIMLUNIT
 70
     4
  9
$DIMLWD
 70
    -2
  9
$DIMLWE
 70
    -2
  9
$DIMTMOVE
 70
     0
  9
$DIMFXL
 40
3.0
  9
$DIMFXLON
 70
     0
  9
$DIMJOGANG
 40
0.7853981633974483
  9
$DIMTFILL
 70
     0
  9
$DIMTFILLCLR
 70
     0
  9
$DIMARCSYM
 70
     0
  9
$DIMLTYPE
  6

  9
$DIMLTEX1
  6

  9
$DIMLTEX2
  6

  9
$LUNITS
 70
     2
  9
$LUPREC
 70
     4
  9
$SKETCHINC
 40
0.1
  9
$FILLETRAD
 40
0.5
  9
$AUNITS
 70
     0
  9
$AUPREC
 70
     0
  9
$MENU
  1
.
  9
$ELEVATION
 40
0.0
  9
$PELEVATION
 40
0.0
  9
$THICKNESS
 40
0.0
  9
$LIMCHECK
 70
     0
  9
$CHAMFERA
 40
0.5
  9
$CHAMFERB
 40
0.5
  9
$CHAMFERC
 40
1.0
  9
$CHAMFERD
 40
0.0
  9
$SKPOLY
 70
     0
  9
$TDCREATE
 40
2455498.662486343
  9
$TDUCREATE
 40
2455498.870819676
  9
$TDUPDATE
 40
2455498.662486354
  9
$TDUUPDATE
 40
2455498.870819687
  9
$TDINDWG
 40
0.0000000116
  9
$TDUSRTIMER
 40
0.0000000116
  9
$USRTIMER
 70
     1
  9
$ANGBASE
 50
0.0
  9
$ANGDIR
 70
     0
  9
$PDMODE
 70
     0
  9
$PDSIZE
 40
0.0
  9
$PLINEWID
 40
0.0
  9
$SPLFRAME
 70
     0
  9
$SPLINETYPE
 70
     6
  9
$SPLINESEGS
 70
     8
  9
$HANDSEED
  5
1DF
  9
$SURFTAB1
 70
     6
  9
$SURFTAB2
 70
     6
  9
$SURFTYPE
 70
     6
  9
$SURFU
 70
     6
  9
$SURFV
 70
     6
  9
$UCSBASE
  2

  9
$UCSNAME
  2

  9
$UCSORG
 10
0.0
 20
0.0
 30
0.0
  9
$UCSXDIR
 10
1.0
 20
0.0
 30
0.0
  9
$UCSYDIR
 10
0.0
 20
1.0
 30
0.0
  9
$UCSORTHOREF
  2

  9
$UCSORTHOVIEW
 70
     0
  9
$UCSORGTOP
 10
0.0
 20
0.0
 30
0.0
  9
$UCSORGBOTTOM
 10
0.0
 20
0.0
 30
0.0
  9
$UCSORGLEFT
 10
0.0
 20
0.0
 30
0.0
  9
$UCSORGRIGHT
 10
0.0
 20
0.0
 30
0.0
  9
$UCSORGFRONT
 10
0.0
 20
0.0
 30
0.0
  9
$UCSORGBACK
 10
0.0
 20
0.0
 30
0.0
  9
$PUCSBASE
  2

  9
$PUCSNAME
  2

  9
$PUCSORG
 10
0.0
 20
0.0
 30
0.0
  9
$PUCSXDIR
 10
1.0
 20
0.0
 30
0.0
  9
$PUCSYDIR
 10
0.0
 20
1.0
 30
0.0
  9
$PUCSORTHOREF
  2

  9
$PUCSORTHOVIEW
 70
     0
  9
$PUCSORGTOP
 10
0.0
 20
0.0
 30
0.0
  9
$PUCSORGBOTTOM
 10
0.0
 20
0.0
 30
0.0
  9
$PUCSORGLEFT
 10
0.0
 20
0.0
 30
0.0
  9
$PUCSORGRIGHT
 10
0.0
 20
0.0
 30
0.0
  9
$PUCSORGFRONT
 10
0.0
 20
0.0
 30
0.0
  9
$PUCSORGBACK
 10
0.0
 20
0.0
 30
0.0
  9
$USERI1
 70
     0
  9
$USERI2
 70
     0
  9
$USERI3
 70
     0
  9
$USERI4
 70
     0
  9
$USERI5
 70
     0
  9
$USERR1
 40
0.0
  9
$USERR2
 40
0.0
  9
$USERR3
 40
0.0
  9
$USERR4
 40
0.0
  9
$USERR5
 40
0.0
  9
$WORLDVIEW
 70
     1
  9
$SHADEDGE
 70
     3
  9
$SHADEDIF
 70
    70
  9
$TILEMODE
 70
     1
  9
$MAXACTVP
 70
    64
  9
$PINSBASE
 10
0.0
 20
0.0
 30
0.0
  9
$PLIMCHECK
 70
     0
  9
$PEXTMIN
 10
1.000000000000000E+20
 20
1.000000000000000E+20
 30
1.000000000000000E+20
  9
$PEXTMAX
 10
-1.000000000000000E+20
 20
-1.000000000000000E+20
 30
-1.000000000000000E+20
  9
$PLIMMIN
 10
0.0
 20
0.0
  9
$PLIMMAX
 10
12.0
 20
9.0
  9
$UNITMODE
 70
     0
  9
$VISRETAIN
 70
     1
  9
$PLINEGEN
 70
     0
  9
$PSLTSCALE
 70
     1
  9
$TREEDEPTH
 70
  3020
  9
$CMLSTYLE
  2
Standard
  9
$CMLJUST
 70
     0
  9
$CMLSCALE
 40
1.0
  9
$PROXYGRAPHICS
 70
     1
  9
$MEASUREMENT
 70
     0
  9
$CELWEIGHT
370
    -1
  9
$ENDCAPS
280
     0
  9
$JOINSTYLE
280
     0
  9
$LWDISPLAY
290
     0
  9
$INSUNITS
 70
     1
  9
$HYPERLINKBASE
  1

  9
$STYLESHEET
  1

  9
$XEDIT
290
     1
  9
$CEPSNTYPE
380
     0
  9
$PSTYLEMODE
290
     1
  9
$FINGERPRINTGUID
  2
{F6D8B1A5-1EF5-4A5C-9800-E4EBA4C5F6AF}
  9
$VERSIONGUID
  2
{FAEB1C32-E019-11D5-929B-00C0DF256EC4}
  9
$EXTNAMES
290
     1
  9
$PSVPSCALE
 40
0.0
  9
$OLESTARTUP
290
     0
  9
$SORTENTS
280
   127
  9
$INDEXCTL
280
     0
  9
$HIDETEXT
280
     1
  9
$XCLIPFRAME
290
     0
  9
$HALOGAP
280
     0
  9
$OBSCOLOR
 70
   257
  9
$OBSLTYPE
280
     0
  9
$INTERSECTIONDISPLAY
280
     0
  9
$INTERSECTIONCOLOR
 70
   257
  9
$DIMASSOC
280
     2
  9
$PROJECTNAME
  1

  9
$CAMERADISPLAY
290
     0
  9
$LENSLENGTH
 40
50.0
  9
$CAMERAHEIGHT
 40
0.0
  9
$STEPSPERSEC
 40
2.0
  9
$STEPSIZE
 40
6.0
  9
$3DDWFPREC
 40
2.0
  9
$PSOLWIDTH
 40
0.25
  9
$PSOLHEIGHT
 40
4.0
  9
$LOFTANG1
 40
1.570796326794897
  9
$LOFTANG2
 40
1.570796326794897
  9
$LOFTMAG1
 40
0.0
  9
$LOFTMAG2
 40
0.0
  9
$LOFTPARAM
 70
     7
  9
$LOFTNORMALS
280
     1
  9
$LATITUDE
 40
37.795
  9
$LONGITUDE
 40
-122.394
  9
$NORTHDIRECTION
 40
0.0
  9
$TIMEZONE
 70
 -8000
  9
$LIGHTGLYPHDISPLAY
280
     1
  9
$TILEMODELIGHTSYNCH
280
     1
  9
$SOLIDHIST
280
     1
  9
$SHOWHIST
280
     1
  9
$DWFFRAME
280
     2
  9
$DGNFRAME
280
     2
  9
$REALWORLDSCALE
290
     1
  9
$INTERFERECOLOR
 62
   256
  9
$CSHADOW
280
     0
  9
$SHADOWPLANELOCATION
 40
0.0
  0
ENDSEC
  0
SECTION
  2
CLASSES
  0
CLASS
  1
ACDBDICTIONARYWDFLT
  2
AcDbDictionaryWithDefault
  3
ObjectDBX Classes
 90
        0
 91
        4
280
     0
281
     0
  0
CLASS
  1
VISUALSTYLE
  2
AcDbVisualStyle
  3
ObjectDBX Classes
 90
     4095
 91
        4
280
     0
281
     0
  0
ENDSEC
  0
SECTION
  2
TABLES
  0
TABLE
  2
VPORT
  5
8
330
0
100
AcDbSymbolTable
 70
     1
  0
VPORT
  5
29
330
8
100
AcDbSymbolTableRecord
100
AcDbViewportTableRecord
  2
*Active
 70
     0
 10
0.0
 20
0.0
 11
1.0
 21
1.0
 12
10.42990654205607
 22
4.5
 13
0.0
 23
0.0
 14
0.5
 24
0.5
 15
0.5
 25
0.5
 16
0.0
 26
0.0
 36
1.0
 17
0.0
 27
0.0
 37
0.0
 40
9.0
 41
1.972972972850329
 42
50.0
 43
0.0
 44
0.0
 50
0.0
 51
0.0
 71
     0
 72
   100
 73
     1
 74
     3
 75
     0
 76
     0
 77
     0
 78
     0
281
     0
 65
     1
110
0.0
120
0.0
130
0.0
111
1.0
121
0.0
131
0.0
112
0.0
122
1.0
132
0.0
 79
     0
146
0.0
 60
     3
 61
     5
292
     1
282
     1
141
0.0
142
0.0
 63
   250
  0
ENDTAB
  0
TABLE
  2
LTYPE
  5
5
330
0
100
AcDbSymbolTable
 70
     2
  0
LTYPE
  5
14
330
5
100
AcDbSymbolTableRecord
100
AcDbLinetypeTableRecord
  2
ByBlock
 70
     0
  3

 72
    65
 73
     0
 40
0.0
  0
LTYPE
  5
15
330
5
100
AcDbSymbolTableRecord
100
AcDbLinetypeTableRecord
  2
ByLayer
 70
     0
  3

 72
    65
 73
     0
 40
0.0
  0
LTYPE
  5
16
330
5
100
AcDbSymbolTableRecord
100
AcDbLinetypeTableRecord
  2
Continuous
 70
     0
  3
Solid line
 72
    65
 73
     0
 40
0.0
  0
LTYPE
  5
1A7
330
5
100
AcDbSymbolTableRecord
100
AcDbLinetypeTableRecord
  2
ISO08W100
 70
     0
  3
ISO08W100 LINE
 72
    65
 73
     4
 40
0.96
 49
0.48
 74
     0
 49
-0.12
 74
     0
 49
0.24
 74
     0
 49
-0.12
 74
     0
  0
ENDTAB
  0
TABLE
  2
LAYER
  5
2
330
0
100
AcDbSymbolTable
 70
     4
  0
LAYER
  5
10
330
2
100
AcDbSymbolTableRecord
100
AcDbLayerTableRecord
  2
0
 70
     0
 62
     7
  6
Continuous
370
    -3
390
F
347
0
  0
LAYER
  5
3C
330
2
100
AcDbSymbolTableRecord
100
AcDbLayerTableRecord
  2
_DEFAULT_CAD_LAYER
 70
     0
 62
     7
  6
Continuous
370
    18
390
F
347
0
  0
LAYER
  5
1A9
330
2
100
AcDbSymbolTableRecord
100
AcDbLayerTableRecord
  2
Text
 70
     0
 62
   156
  6
Continuous
370
     9
390
F
347
0
1001
CHIEFARC-LNWT
1070
    10
  0
ENDTAB
  0
TABLE
  2
STYLE
  5
3
330
0
100
AcDbSymbolTable
 70
     1
  0
STYLE
  5
11
330
3
100
AcDbSymbolTableRecord
100
AcDbTextStyleTableRecord
  2
Standard
 70
     0
 40
0.0
 41
1.0
 50
0.0
 71
     0
 42
0.2
  3
txt
  4

  0
ENDTAB
  0
TABLE
  2
VIEW
  5
6
330
0
100
AcDbSymbolTable
 70
     0
  0
ENDTAB
  0
TABLE
  2
UCS
  5
7
330
0
100
AcDbSymbolTable
 70
     0
  0
ENDTAB
  0
TABLE
  2
APPID
  5
9
330
0
100
AcDbSymbolTable
 70
     7
  0
APPID
  5
12
330
9
100
AcDbSymbolTableRecord
100
AcDbRegAppTableRecord
  2
ACAD
 70
     0
  0
APPID
  5
A9
330
9
100
AcDbSymbolTableRecord
100
AcDbRegAppTableRecord
  2
CHIEFARC-LNWT
 70
     0
  0
APPID
  5
1C0
330
9
100
AcDbSymbolTableRecord
100
AcDbRegAppTableRecord
  2
CHIEFARC_RTFBINARY
 70
     0
  0
APPID
  5
1C1
330
9
100
AcDbSymbolTableRecord
100
AcDbRegAppTableRecord
  2
CHIEFARC_SIMPLE_TEXT_BINARY
 70
     0
  0
APPID
  5
1C2
330
9
100
AcDbSymbolTableRecord
100
AcDbRegAppTableRecord
  2
CHIEFARC-WIDTHEXPANDED
 70
     0
  0
APPID
  5
1C3
330
9
100
AcDbSymbolTableRecord
100
AcDbRegAppTableRecord
  2
CHIEFARC_AUTOHEIGHT
 70
     0
  0
APPID
  5
1C4
330
9
100
AcDbSymbolTableRecord
100
AcDbRegAppTableRecord
  2
CHIEFARC_AUTOWIDTH
 70
     0
  0
ENDTAB
  0
TABLE
  2
DIMSTYLE
  5
A
330
0
100
AcDbSymbolTable
 70
     2
100
AcDbDimStyleTable
  0
DIMSTYLE
105
27
330
A
100
AcDbSymbolTableRecord
100
AcDbDimStyleTableRecord
  2
Standard
 70
     0
340
11
  0
DIMSTYLE
105
3B
330
A
100
AcDbSymbolTableRecord
100
AcDbDimStyleTableRecord
  2
CHIEF
 70
     0
 41
5.0
 42
3.0
 44
3.0
 49
3.0
 73
     0
 74
     0
140
6.0
143
1.0
147
0.5
171
     0
276
     2
277
     4
285
    12
340
11
  0
ENDTAB
  0
TABLE
  2
BLOCK_RECORD
  5
1
330
0
100
AcDbSymbolTable
 70
     6
  0
BLOCK_RECORD
  5
1F
330
1
100
AcDbSymbolTableRecord
100
AcDbBlockTableRecord
  2
*Model_Space
340
22
 70
     0
280
     1
281
     0
  0
BLOCK_RECORD
  5
1B
330
1
100
AcDbSymbolTableRecord
100
AcDbBlockTableRecord
  2
*Paper_Space
340
1E
 70
     0
280
     1
281
     0
  0
BLOCK_RECORD
  5
23
330
1
100
AcDbSymbolTableRecord
100
AcDbBlockTableRecord
  2
*Paper_Space0
340
26
 70
     0
280
     1
281
     0
  0
BLOCK_RECORD
  5
A7
330
1
100
AcDbSymbolTableRecord
100
AcDbBlockTableRecord
  2
block35
340
0
102
{BLKREFS
331
11D
331
11E
102
}
 70
     0
280
     1
281
     0
  0
BLOCK_RECORD
  5
A8
330
1
100
AcDbSymbolTableRecord
100
AcDbBlockTableRecord
  2
block33_1
340
0
102
{BLKREFS
331
119
102
}
 70
     0
280
     1
281
     0
  0
BLOCK_RECORD
  5
11F
330
1
100
AcDbSymbolTableRecord
100
AcDbBlockTableRecord
  2
5__Bevel
340
0
102
{BLKREFS
331
189
331
18A
331
18B
102
}
 70
     0
280
     1
281
     0
  0
BLOCK_RECORD
  5
1CC
330
1
100
AcDbSymbolTableRecord
100
AcDbBlockTableRecord
  2
block34_1
340
0
102
{BLKREFS
331
1DB
331
1DC
102
}
 70
     0
280
     1
281
     0
  0
BLOCK_RECORD
  5
1D4
330
1
100
AcDbSymbolTableRecord
100
AcDbBlockTableRecord
  2
Break_Line
340
0
102
{BLKREFS
331
1D8
102
}
 70
     0
280
     1
281
     0
  0
ENDTAB
  0
ENDSEC
  0
SECTION
  2
BLOCKS
  0
BLOCK
  5
20
330
1F
100
AcDbEntity
  8
0
100
AcDbBlockBegin
  2
*Model_Space
 70
     0
 10
0.0
 20
0.0
 30
0.0
  3
*Model_Space
  1

  0
ENDBLK
  5
21
330
1F
100
AcDbEntity
  8
0
100
AcDbBlockEnd
  0
BLOCK
  5
1C
330
1B
100
AcDbEntity
 67
     1
  8
0
100
AcDbBlockBegin
  2
*Paper_Space
 70
     0
 10
0.0
 20
0.0
 30
0.0
  3
*Paper_Space
  1

  0
ENDBLK
  5
1D
330
1B
100
AcDbEntity
 67
     1
  8
0
100
AcDbBlockEnd
  0
BLOCK
  5
24
330
23
100
AcDbEntity
  8
0
100
AcDbBlockBegin
  2
*Paper_Space0
 70
     0
 10
0.0
 20
0.0
 30
0.0
  3
*Paper_Space0
  1

  0
ENDBLK
  5
25
330
23
100
AcDbEntity
  8
0
100
AcDbBlockEnd
  0
BLOCK
  5
11B
330
A7
100
AcDbEntity
  8
0
100
AcDbBlockBegin
  2
block35
 70
     0
 10
0.0
 20
0.0
 30
0.0
  3
block35
  1

  0
INSERT
  5
119
330
A7
100
AcDbEntity
  8
0
  6
Continuous
370
     0
100
AcDbBlockReference
  2
block33_1
 10
0.0
 20
0.0000000000001137
 30
0.0
1001
CHIEFARC-LNWT
1070
     0
  0
LINE
  5
11A
330
A7
100
AcDbEntity
  8
0
100
AcDbLine
 10
-0.7509544103592134
 20
0.0
 30
0.0
 11
-0.7509544103593271
 21
23.28167144189581
 31
0.0
  0
ENDBLK
  5
11C
330
A7
100
AcDbEntity
  8
0
100
AcDbBlockEnd
  0
BLOCK
  5
117
330
A8
100
AcDbEntity
  8
0
100
AcDbBlockBegin
  2
block33_1
 70
     0
 10
0.0
 20
0.0
 30
0.0
  3
block33_1
  1

  0
LINE
  5
AA
330
A8
100
AcDbEntity
  8
0
 62
   253
370
    13
100
AcDbLine
 10
0.7071067811865476
 20
0.0
 30
0.0
 11
1.0009544103591
 21
0.2938476291725536
 31
0.0
1001
CHIEFARC-LNWT
1070
    12
  0
LINE
  5
AB
330
A8
100
AcDbEntity
  8
0
 62
   253
370
    13
100
AcDbLine
 10
0.3759544103590997
 20
0.3759544103590996
 30
0.0
 11
1.0009544103591
 21
1.0009544103591
 31
0.0
1001
CHIEFARC-LNWT
1070
    12
  0
LINE
  5
AC
330
A8
100
AcDbEntity
  8
0
 62
   253
370
    13
100
AcDbLine
 10
0.3759544103590997
 20
1.083061191545647
 30
0.0
 11
1.0009544103591
 21
1.708061191545649
 31
0.0
1001
CHIEFARC-LNWT
1070
    12
  0
LINE
  5
AD
330
A8
100
AcDbEntity
  8
0
 62
   253
370
    13
100
AcDbLine
 10
0.3759544103590997
 20
1.790167972732194
 30
0.0
 11
1.0009544103591
 21
2.415167972732196
 31
0.0
1001
CHIEFARC-LNWT
1070
    12
  0
LINE
  5
AE
330
A8
100
AcDbEntity
  8
0
 62
   253
370
    13
100
AcDbLine
 10
0.3759544103590997
 20
2.497274753918742
 30
0.0
 11
1.0009544103591
 21
3.122274753918742
 31
0.0
1001
CHIEFARC-LNWT
1070
    12
  0
LINE
  5
AF
330
A8
100
AcDbEntity
  8
0
 62
   253
370
    13
100
AcDbLine
 10
0.3759544103590997
 20
3.204381535105289
 30
0.0
 11
1.0009544103591
 21
3.829381535105288
 31
0.0
1001
CHIEFARC-LNWT
1070
    12
  0
LINE
  5
B0
330
A8
100
AcDbEntity
  8
0
 62
   253
370
    13
100
AcDbLine
 10
0.3759544103590997
 20
3.911488316291837
 30
0.0
 11
1.0009544103591
 21
4.536488316291837
 31
0.0
1001
CHIEFARC-LNWT
1070
    12
  0
LINE
  5
B1
330
A8
100
AcDbEntity
  8
0
 62
   253
370
    13
100
AcDbLine
 10
0.3759544103590997
 20
4.618595097478384
 30
0.0
 11
1.0009544103591
 21
5.243595097478384
 31
0.0
1001
CHIEFARC-LNWT
1070
    12
  0
LINE
  5
B2
330
A8
100
AcDbEntity
  8
0
 62
   253
370
    13
100
AcDbLine
 10
0.3759544103590997
 20
5.325701878664931
 30
0.0
 11
1.0009544103591
 21
5.95070187866493
 31
0.0
1001
CHIEFARC-LNWT
1070
    12
  0
LINE
  5
B3
330
A8
100
AcDbEntity
  8
0
 62
   253
370
    13
100
AcDbLine
 10
0.3759544103590997
 20
6.032808659851479
 30
0.0
 11
1.0009544103591
 21
6.657808659851479
 31
0.0
1001
CHIEFARC-LNWT
1070
    12
  0
LINE
  5
B4
330
A8
100
AcDbEntity
  8
0
 62
   253
370
    13
100
AcDbLine
 10
0.3759544103590997
 20
6.739915441038026
 30
0.0
 11
1.0009544103591
 21
7.364915441038026
 31
0.0
1001
CHIEFARC-LNWT
1070
    12
  0
LINE
  5
B5
330
A8
100
AcDbEntity
  8
0
 62
   253
370
    13
100
AcDbLine
 10
0.3759544103590997
 20
7.447022222224573
 30
0.0
 11
1.0009544103591
 21
8.072022222224575
 31
0.0
1001
CHIEFARC-LNWT
1070
    12
  0
LINE
  5
B6
330
A8
100
AcDbEntity
  8
0
 62
   253
370
    13
100
AcDbLine
 10
0.3759544103590997
 20
8.154129003411121
 30
0.0
 11
1.0009544103591
 21
8.77912900341112
 31
0.0
1001
CHIEFARC-LNWT
1070
    12
  0
LINE
  5
B7
330
A8
100
AcDbEntity
  8
0
 62
   253
370
    13
100
AcDbLine
 10
0.3759544103590997
 20
8.861235784597671
 30
0.0
 11
1.0009544103591
 21
9.486235784597667
 31
0.0
1001
CHIEFARC-LNWT
1070
    12
  0
LINE
  5
B8
330
A8
100
AcDbEntity
  8
0
 62
   253
370
    13
100
AcDbLine
 10
0.3759544103590997
 20
9.568342565784217
 30
0.0
 11
1.0009544103591
 21
10.19334256578422
 31
0.0
1001
CHIEFARC-LNWT
1070
    12
  0
LINE
  5
B9
330
A8
100
AcDbEntity
  8
0
 62
   253
370
    13
100
AcDbLine
 10
0.3759544103590997
 20
10.27544934697076
 30
0.0
 11
1.0009544103591
 21
10.90044934697076
 31
0.0
1001
CHIEFARC-LNWT
1070
    12
  0
LINE
  5
BA
330
A8
100
AcDbEntity
  8
0
 62
   253
370
    13
100
AcDbLine
 10
0.3759544103590997
 20
10.98255612815731
 30
0.0
 11
1.0009544103591
 21
11.60755612815731
 31
0.0
1001
CHIEFARC-LNWT
1070
    12
  0
LINE
  5
BB
330
A8
100
AcDbEntity
  8
0
 62
   253
370
    13
100
AcDbLine
 10
0.3759544103590997
 20
11.68966290934386
 30
0.0
 11
1.0009544103591
 21
12.31466290934386
 31
0.0
1001
CHIEFARC-LNWT
1070
    12
  0
LINE
  5
BC
330
A8
100
AcDbEntity
  8
0
 62
   253
370
    13
100
AcDbLine
 10
0.3759544103590997
 20
12.39676969053041
 30
0.0
 11
1.0009544103591
 21
13.02176969053041
 31
0.0
1001
CHIEFARC-LNWT
1070
    12
  0
LINE
  5
BD
330
A8
100
AcDbEntity
  8
0
 62
   253
370
    13
100
AcDbLine
 10
0.3759544103590997
 20
13.10387647171695
 30
0.0
 11
1.0009544103591
 21
13.72887647171695
 31
0.0
1001
CHIEFARC-LNWT
1070
    12
  0
LINE
  5
BE
330
A8
100
AcDbEntity
  8
0
 62
   253
370
    13
100
AcDbLine
 10
0.3759544103590997
 20
13.8109832529035
 30
0.0
 11
1.0009544103591
 21
14.4359832529035
 31
0.0
1001
CHIEFARC-LNWT
1070
    12
  0
LINE
  5
BF
330
A8
100
AcDbEntity
  8
0
 62
   253
370
    13
100
AcDbLine
 10
0.3759544103590997
 20
14.51809003409005
 30
0.0
 11
1.0009544103591
 21
15.14309003409005
 31
0.0
1001
CHIEFARC-LNWT
1070
    12
  0
LINE
  5
C0
330
A8
100
AcDbEntity
  8
0
 62
   253
370
    13
100
AcDbLine
 10
0.3759544103590997
 20
15.2251968152766
 30
0.0
 11
1.0009544103591
 21
15.85019681527659
 31
0.0
1001
CHIEFARC-LNWT
1070
    12
  0
LINE
  5
C1
330
A8
100
AcDbEntity
  8
0
 62
   253
370
    13
100
AcDbLine
 10
0.3759544103590997
 20
15.93230359646314
 30
0.0
 11
1.0009544103591
 21
16.55730359646314
 31
0.0
1001
CHIEFARC-LNWT
1070
    12
  0
LINE
  5
C2
330
A8
100
AcDbEntity
  8
0
 62
   253
370
    13
100
AcDbLine
 10
0.3759544103590997
 20
16.63941037764969
 30
0.0
 11
1.0009544103591
 21
17.26441037764969
 31
0.0
1001
CHIEFARC-LNWT
1070
    12
  0
LINE
  5
C3
330
A8
100
AcDbEntity
  8
0
 62
   253
370
    13
100
AcDbLine
 10
0.3759544103590997
 20
17.34651715883624
 30
0.0
 11
1.0009544103591
 21
17.97151715883624
 31
0.0
1001
CHIEFARC-LNWT
1070
    12
  0
LINE
  5
C4
330
A8
100
AcDbEntity
  8
0
 62
   253
370
    13
100
AcDbLine
 10
0.3759544103590997
 20
18.05362394002278
 30
0.0
 11
1.0009544103591
 21
18.67862394002278
 31
0.0
1001
CHIEFARC-LNWT
1070
    12
  0
LINE
  5
C5
330
A8
100
AcDbEntity
  8
0
 62
   253
370
    13
100
AcDbLine
 10
0.3759544103590997
 20
18.76073072120933
 30
0.0
 11
1.0009544103591
 21
19.38573072120933
 31
0.0
1001
CHIEFARC-LNWT
1070
    12
  0
LINE
  5
C6
330
A8
100
AcDbEntity
  8
0
 62
   253
370
    13
100
AcDbLine
 10
0.3759544103590997
 20
19.46783750239588
 30
0.0
 11
1.0009544103591
 21
20.09283750239588
 31
0.0
1001
CHIEFARC-LNWT
1070
    12
  0
LINE
  5
C7
330
A8
100
AcDbEntity
  8
0
 62
   253
370
    13
100
AcDbLine
 10
0.3759544103590997
 20
20.17494428358242
 30
0.0
 11
1.0009544103591
 21
20.79994428358242
 31
0.0
1001
CHIEFARC-LNWT
1070
    12
  0
LINE
  5
C8
330
A8
100
AcDbEntity
  8
0
 62
   253
370
    13
100
AcDbLine
 10
0.3759544103590997
 20
20.88205106476897
 30
0.0
 11
1.0009544103591
 21
21.50705106476897
 31
0.0
1001
CHIEFARC-LNWT
1070
    12
  0
LINE
  5
C9
330
A8
100
AcDbEntity
  8
0
 62
   253
370
    13
100
AcDbLine
 10
0.3759544103590997
 20
21.58915784595552
 30
0.0
 11
1.0009544103591
 21
22.21415784595552
 31
0.0
1001
CHIEFARC-LNWT
1070
    12
  0
LINE
  5
CA
330
A8
100
AcDbEntity
  8
0
 62
   253
370
    13
100
AcDbLine
 10
0.3759544103590997
 20
22.29626462714207
 30
0.0
 11
1.0009544103591
 21
22.92126462714207
 31
0.0
1001
CHIEFARC-LNWT
1070
    12
  0
LINE
  5
CB
330
A8
100
AcDbEntity
  8
0
 62
   253
370
    13
100
AcDbLine
 10
0.3759544103590997
 20
23.00337140832862
 30
0.0
 11
1.0009544103591
 21
23.62837140832862
 31
0.0
1001
CHIEFARC-LNWT
1070
    12
  0
LINE
  5
CC
330
A8
100
AcDbEntity
  8
0
 62
   253
370
    13
100
AcDbLine
 10
0.3759544103590997
 20
23.71047818951516
 30
0.0
 11
0.9616679168071574
 21
24.29619169596322
 31
0.0
1001
CHIEFARC-LNWT
1070
    12
  0
LINE
  5
CD
330
A8
100
AcDbEntity
  8
0
 62
   253
370
    13
100
AcDbLine
 10
-0.1802129159589508
 20
0.5268938652275965
 30
0.0
 11
0.3759544103590997
 21
1.083061191545649
 31
0.0
1001
CHIEFARC-LNWT
1070
    12
  0
LINE
  5
CE
330
A8
100
AcDbEntity
  8
0
 62
   253
370
    13
100
AcDbLine
 10
-0.2493397331717009
 20
1.164873829201406
 30
0.0
 11
0.3759544103590997
 21
1.790167972732196
 31
0.0
1001
CHIEFARC-LNWT
1070
    12
  0
LINE
  5
CF
330
A8
100
AcDbEntity
  8
0
 62
   253
370
    13
100
AcDbLine
 10
-0.249665611285687
 20
1.871654732273933
 30
0.0
 11
0.3759544103590997
 21
2.497274753918742
 31
0.0
1001
CHIEFARC-LNWT
1070
    12
  0
LINE
  5
D0
330
A8
100
AcDbEntity
  8
0
 62
   253
370
    13
100
AcDbLine
 10
-0.2499914893996732
 20
2.578435635346521
 30
0.0
 11
0.3759544103590997
 21
3.204381535105288
 31
0.0
1001
CHIEFARC-LNWT
1070
    12
  0
LINE
  5
D1
330
A8
100
AcDbEntity
  8
0
 62
   253
370
    13
100
AcDbLine
 10
-0.2503173675136593
 20
3.285216538419048
 30
0.0
 11
0.3759544103590997
 21
3.911488316291837
 31
0.0
1001
CHIEFARC-LNWT
1070
    12
  0
LINE
  5
D2
330
A8
100
AcDbEntity
  8
0
 62
   253
370
    13
100
AcDbLine
 10
-0.2506432456276455
 20
3.991997441491635
 30
0.0
 11
0.3759544103590997
 21
4.618595097478384
 31
0.0
1001
CHIEFARC-LNWT
1070
    12
  0
LINE
  5
D3
330
A8
100
AcDbEntity
  8
0
 62
   253
370
    13
100
AcDbLine
 10
-0.2509691237416316
 20
4.698778344564222
 30
0.0
 11
0.3759544103590997
 21
5.32570187866493
 31
0.0
1001
CHIEFARC-LNWT
1070
    12
  0
LINE
  5
D4
330
A8
100
AcDbEntity
  8
0
 62
   253
370
    13
100
AcDbLine
 10
-0.2512950018556178
 20
5.40555924763681
 30
0.0
 11
0.3759544103590997
 21
6.032808659851479
 31
0.0
1001
CHIEFARC-LNWT
1070
    12
  0
LINE
  5
D5
330
A8
100
AcDbEntity
  8
0
 62
   253
370
    13
100
AcDbLine
 10
-0.2516208799696039
 20
6.112340150709277
 30
0.0
 11
0.3759544103590997
 21
6.739915441038026
 31
0.0
1001
CHIEFARC-LNWT
1070
    12
  0
LINE
  5
D6
330
A8
100
AcDbEntity
  8
0
 62
   253
370
    13
100
AcDbLine
 10
-0.25194675808359
 20
6.819121053781863
 30
0.0
 11
0.3759544103590997
 21
7.447022222224572
 31
0.0
1001
CHIEFARC-LNWT
1070
    12
  0
LINE
  5
D7
330
A8
100
AcDbEntity
  8
0
 62
   253
370
    13
100
AcDbLine
 10
-0.2522726361975762
 20
7.525901956854452
 30
0.0
 11
0.3759544103590997
 21
8.154129003411118
 31
0.0
1001
CHIEFARC-LNWT
1070
    12
  0
LINE
  5
D8
330
A8
100
AcDbEntity
  8
0
 62
   253
370
    13
100
AcDbLine
 10
-0.2525985143115623
 20
8.232682859927039
 30
0.0
 11
0.3759544103590997
 21
8.861235784597667
 31
0.0
1001
CHIEFARC-LNWT
1070
    12
  0
LINE
  5
D9
330
A8
100
AcDbEntity
  8
0
 62
   253
370
    13
100
AcDbLine
 10
-0.2529243924255485
 20
8.939463762999624
 30
0.0
 11
0.3759544103590997
 21
9.568342565784217
 31
0.0
1001
CHIEFARC-LNWT
1070
    12
  0
LINE
  5
DA
330
A8
100
AcDbEntity
  8
0
 62
   253
370
    13
100
AcDbLine
 10
-0.2532502705395346
 20
9.646244666072093
 30
0.0
 11
0.3759544103590997
 21
10.27544934697076
 31
0.0
1001
CHIEFARC-LNWT
1070
    12
  0
LINE
  5
DB
330
A8
100
AcDbEntity
  8
0
 62
   253
370
    13
100
AcDbLine
 10
-0.2535761486535207
 20
10.35302556914468
 30
0.0
 11
0.3759544103590997
 21
10.98255612815731
 31
0.0
1001
CHIEFARC-LNWT
1070
    12
  0
LINE
  5
DC
330
A8
100
AcDbEntity
  8
0
 62
   253
370
    13
100
AcDbLine
 10
-0.2539020267675069
 20
11.05980647221727
 30
0.0
 11
0.3759544103590997
 21
11.68966290934386
 31
0.0
1001
CHIEFARC-LNWT
1070
    12
  0
LINE
  5
DD
330
A8
100
AcDbEntity
  8
0
 62
   253
370
    13
100
AcDbLine
 10
-0.254227904881493
 20
11.76658737528985
 30
0.0
 11
0.3759544103590997
 21
12.3967696905304
 31
0.0
1001
CHIEFARC-LNWT
1070
    12
  0
LINE
  5
DE
330
A8
100
AcDbEntity
  8
0
 62
   253
370
    13
100
AcDbLine
 10
-0.2545537829954791
 20
12.47336827836232
 30
0.0
 11
0.3759544103590997
 21
13.10387647171695
 31
0.0
1001
CHIEFARC-LNWT
1070
    12
  0
LINE
  5
DF
330
A8
100
AcDbEntity
  8
0
 62
   253
370
    13
100
AcDbLine
 10
-0.2548796611094653
 20
13.18014918143491
 30
0.0
 11
0.3759544103590997
 21
13.8109832529035
 31
0.0
1001
CHIEFARC-LNWT
1070
    12
  0
LINE
  5
E0
330
A8
100
AcDbEntity
  8
0
 62
   253
370
    13
100
AcDbLine
 10
-0.2552055392234515
 20
13.8869300845075
 30
0.0
 11
0.3759544103590997
 21
14.51809003409005
 31
0.0
1001
CHIEFARC-LNWT
1070
    12
  0
LINE
  5
E1
330
A8
100
AcDbEntity
  8
0
 62
   253
370
    13
100
AcDbLine
 10
-0.2555314173374376
 20
14.59371098758008
 30
0.0
 11
0.3759544103590997
 21
15.22519681527659
 31
0.0
1001
CHIEFARC-LNWT
1070
    12
  0
LINE
  5
E2
330
A8
100
AcDbEntity
  8
0
 62
   253
370
    13
100
AcDbLine
 10
-0.2558572954514238
 20
15.30049189065267
 30
0.0
 11
0.3759544103590997
 21
15.93230359646314
 31
0.0
1001
CHIEFARC-LNWT
1070
    12
  0
LINE
  5
E3
330
A8
100
AcDbEntity
  8
0
 62
   253
370
    13
100
AcDbLine
 10
-0.2561831735654099
 20
16.00727279372514
 30
0.0
 11
0.3759544103590997
 21
16.63941037764969
 31
0.0
1001
CHIEFARC-LNWT
1070
    12
  0
LINE
  5
E4
330
A8
100
AcDbEntity
  8
0
 62
   253
370
    13
100
AcDbLine
 10
-0.256509051679396
 20
16.71405369679772
 30
0.0
 11
0.3759544103590997
 21
17.34651715883624
 31
0.0
1001
CHIEFARC-LNWT
1070
    12
  0
LINE
  5
E5
330
A8
100
AcDbEntity
  8
0
 62
   253
370
    13
100
AcDbLine
 10
-0.2568349297933822
 20
17.42083459987031
 30
0.0
 11
0.3759544103590997
 21
18.05362394002278
 31
0.0
1001
CHIEFARC-LNWT
1070
    12
  0
LINE
  5
E6
330
A8
100
AcDbEntity
  8
0
 62
   253
370
    13
100
AcDbLine
 10
-0.2571608079073683
 20
18.1276155029429
 30
0.0
 11
0.3759544103590997
 21
18.76073072120933
 31
0.0
1001
CHIEFARC-LNWT
1070
    12
  0
LINE
  5
E7
330
A8
100
AcDbEntity
  8
0
 62
   253
370
    13
100
AcDbLine
 10
-0.2574866860213545
 20
18.83439640601549
 30
0.0
 11
0.3759544103590997
 21
19.46783750239588
 31
0.0
1001
CHIEFARC-LNWT
1070
    12
  0
LINE
  5
E8
330
A8
100
AcDbEntity
  8
0
 62
   253
370
    13
100
AcDbLine
 10
-0.2578125641353406
 20
19.54117730908795
 30
0.0
 11
0.3759544103590997
 21
20.17494428358242
 31
0.0
1001
CHIEFARC-LNWT
1070
    12
  0
LINE
  5
E9
330
A8
100
AcDbEntity
  8
0
 62
   253
370
    13
100
AcDbLine
 10
-0.2581384422493267
 20
20.24795821216054
 30
0.0
 11
0.3759544103590997
 21
20.88205106476897
 31
0.0
1001
CHIEFARC-LNWT
1070
    12
  0
LINE
  5
EA
330
A8
100
AcDbEntity
  8
0
 62
   253
370
    13
100
AcDbLine
 10
-0.2584643203633129
 20
20.95473911523313
 30
0.0
 11
0.3759544103590997
 21
21.58915784595552
 31
0.0
1001
CHIEFARC-LNWT
1070
    12
  0
LINE
  5
EB
330
A8
100
AcDbEntity
  8
0
 62
   253
370
    13
100
AcDbLine
 10
-0.2587901984772991
 20
21.66152001830571
 30
0.0
 11
0.3759544103590997
 21
22.29626462714207
 31
0.0
1001
CHIEFARC-LNWT
1070
    12
  0
LINE
  5
EC
330
A8
100
AcDbEntity
  8
0
 62
   253
370
    13
100
AcDbLine
 10
-0.2591160765912852
 20
22.36830092137818
 30
0.0
 11
0.3759544103590997
 21
23.00337140832862
 31
0.0
1001
CHIEFARC-LNWT
1070
    12
  0
LINE
  5
ED
330
A8
100
AcDbEntity
  8
0
 62
   253
370
    13
100
AcDbLine
 10
-0.2594419547052713
 20
23.07508182445077
 30
0.0
 11
0.3759544103590997
 21
23.71047818951516
 31
0.0
1001
CHIEFARC-LNWT
1070
    12
  0
LINE
  5
EE
330
A8
100
AcDbEntity
  8
0
 62
   253
370
    13
100
AcDbLine
 10
-0.2597678328192575
 20
23.78186272752335
 30
0.0
 11
0.2545611356206019
 21
24.29619169596322
 31
0.0
1001
CHIEFARC-LNWT
1070
    12
  0
LINE
  5
EF
330
A8
100
AcDbEntity
  8
0
 62
   253
370
    13
100
AcDbLine
 10
-0.7071067811865476
 20
0.0
 30
0.0
 11
-0.2490455896409003
 21
0.4580611915456472
 31
0.0
1001
CHIEFARC-LNWT
1070
    12
  0
LINE
  5
F0
330
A8
100
AcDbEntity
  8
0
 62
   253
370
    13
100
AcDbLine
 10
-0.9990455896409003
 20
0.4151679727321947
 30
0.0
 11
-0.2493397331717009
 21
1.164873829201408
 31
0.0
1001
CHIEFARC-LNWT
1070
    12
  0
LINE
  5
F1
330
A8
100
AcDbEntity
  8
0
 62
   253
370
    13
100
AcDbLine
 10
-0.9990455896409003
 20
1.122274753918742
 30
0.0
 11
-0.249665611285687
 21
1.871654732273932
 31
0.0
1001
CHIEFARC-LNWT
1070
    12
  0
LINE
  5
F2
330
A8
100
AcDbEntity
  8
0
 62
   253
370
    13
100
AcDbLine
 10
-0.9990455896409003
 20
1.829381535105289
 30
0.0
 11
-0.2499914893996732
 21
2.578435635346519
 31
0.0
1001
CHIEFARC-LNWT
1070
    12
  0
LINE
  5
F3
330
A8
100
AcDbEntity
  8
0
 62
   253
370
    13
100
AcDbLine
 10
-0.9990455896409003
 20
2.536488316291837
 30
0.0
 11
-0.2503173675136593
 21
3.28521653841905
 31
0.0
1001
CHIEFARC-LNWT
1070
    12
  0
LINE
  5
F4
330
A8
100
AcDbEntity
  8
0
 62
   253
370
    13
100
AcDbLine
 10
-0.9990455896409003
 20
3.243595097478384
 30
0.0
 11
-0.2506432456276455
 21
3.991997441491637
 31
0.0
1001
CHIEFARC-LNWT
1070
    12
  0
LINE
  5
F5
330
A8
100
AcDbEntity
  8
0
 62
   253
370
    13
100
AcDbLine
 10
-0.9990455896409003
 20
3.950701878664931
 30
0.0
 11
-0.2509691237416316
 21
4.698778344564221
 31
0.0
1001
CHIEFARC-LNWT
1070
    12
  0
LINE
  5
F6
330
A8
100
AcDbEntity
  8
0
 62
   253
370
    13
100
AcDbLine
 10
-0.9990455896409003
 20
4.657808659851479
 30
0.0
 11
-0.2512950018556178
 21
5.405559247636809
 31
0.0
1001
CHIEFARC-LNWT
1070
    12
  0
LINE
  5
F7
330
A8
100
AcDbEntity
  8
0
 62
   253
370
    13
100
AcDbLine
 10
-0.9990455896409003
 20
5.364915441038027
 30
0.0
 11
-0.2516208799696039
 21
6.112340150709279
 31
0.0
1001
CHIEFARC-LNWT
1070
    12
  0
LINE
  5
F8
330
A8
100
AcDbEntity
  8
0
 62
   253
370
    13
100
AcDbLine
 10
-0.9990455896409003
 20
6.072022222224573
 30
0.0
 11
-0.25194675808359
 21
6.819121053781863
 31
0.0
1001
CHIEFARC-LNWT
1070
    12
  0
LINE
  5
F9
330
A8
100
AcDbEntity
  8
0
 62
   253
370
    13
100
AcDbLine
 10
-0.9990455896409003
 20
6.77912900341112
 30
0.0
 11
-0.2522726361975762
 21
7.525901956854451
 31
0.0
1001
CHIEFARC-LNWT
1070
    12
  0
LINE
  5
FA
330
A8
100
AcDbEntity
  8
0
 62
   253
370
    13
100
AcDbLine
 10
-0.9990455896409003
 20
7.486235784597669
 30
0.0
 11
-0.2525985143115623
 21
8.232682859927039
 31
0.0
1001
CHIEFARC-LNWT
1070
    12
  0
LINE
  5
FB
330
A8
100
AcDbEntity
  8
0
 62
   253
370
    13
100
AcDbLine
 10
-0.9990455896409003
 20
8.193342565784217
 30
0.0
 11
-0.2529243924255485
 21
8.939463762999624
 31
0.0
1001
CHIEFARC-LNWT
1070
    12
  0
LINE
  5
FC
330
A8
100
AcDbEntity
  8
0
 62
   253
370
    13
100
AcDbLine
 10
-0.9990455896409003
 20
8.900449346970763
 30
0.0
 11
-0.2532502705395346
 21
9.646244666072093
 31
0.0
1001
CHIEFARC-LNWT
1070
    12
  0
LINE
  5
FD
330
A8
100
AcDbEntity
  8
0
 62
   253
370
    13
100
AcDbLine
 10
-0.9990455896409003
 20
9.607556128157311
 30
0.0
 11
-0.2535761486535207
 21
10.35302556914468
 31
0.0
1001
CHIEFARC-LNWT
1070
    12
  0
LINE
  5
FE
330
A8
100
AcDbEntity
  8
0
 62
   253
370
    13
100
AcDbLine
 10
-0.9990455896409003
 20
10.31466290934386
 30
0.0
 11
-0.2539020267675069
 21
11.05980647221727
 31
0.0
1001
CHIEFARC-LNWT
1070
    12
  0
LINE
  5
FF
330
A8
100
AcDbEntity
  8
0
 62
   253
370
    13
100
AcDbLine
 10
-0.9990455896409003
 20
11.02176969053041
 30
0.0
 11
-0.254227904881493
 21
11.76658737528985
 31
0.0
1001
CHIEFARC-LNWT
1070
    12
  0
LINE
  5
100
330
A8
100
AcDbEntity
  8
0
 62
   253
370
    13
100
AcDbLine
 10
-0.9990455896409003
 20
11.72887647171695
 30
0.0
 11
-0.2545537829954791
 21
12.47336827836232
 31
0.0
1001
CHIEFARC-LNWT
1070
    12
  0
LINE
  5
101
330
A8
100
AcDbEntity
  8
0
 62
   253
370
    13
100
AcDbLine
 10
-0.9990455896409003
 20
12.4359832529035
 30
0.0
 11
-0.2548796611094653
 21
13.18014918143491
 31
0.0
1001
CHIEFARC-LNWT
1070
    12
  0
LINE
  5
102
330
A8
100
AcDbEntity
  8
0
 62
   253
370
    13
100
AcDbLine
 10
-0.9990455896409003
 20
13.14309003409005
 30
0.0
 11
-0.2552055392234515
 21
13.8869300845075
 31
0.0
1001
CHIEFARC-LNWT
1070
    12
  0
LINE
  5
103
330
A8
100
AcDbEntity
  8
0
 62
   253
370
    13
100
AcDbLine
 10
-0.9990455896409003
 20
13.8501968152766
 30
0.0
 11
-0.2555314173374376
 21
14.59371098758008
 31
0.0
1001
CHIEFARC-LNWT
1070
    12
  0
LINE
  5
104
330
A8
100
AcDbEntity
  8
0
 62
   253
370
    13
100
AcDbLine
 10
-0.9990455896409003
 20
14.55730359646314
 30
0.0
 11
-0.2558572954514238
 21
15.30049189065267
 31
0.0
1001
CHIEFARC-LNWT
1070
    12
  0
LINE
  5
105
330
A8
100
AcDbEntity
  8
0
 62
   253
370
    13
100
AcDbLine
 10
-0.9990455896409003
 20
15.26441037764969
 30
0.0
 11
-0.2561831735654099
 21
16.00727279372514
 31
0.0
1001
CHIEFARC-LNWT
1070
    12
  0
LINE
  5
106
330
A8
100
AcDbEntity
  8
0
 62
   253
370
    13
100
AcDbLine
 10
-0.9990455896409003
 20
15.97151715883624
 30
0.0
 11
-0.256509051679396
 21
16.71405369679772
 31
0.0
1001
CHIEFARC-LNWT
1070
    12
  0
LINE
  5
107
330
A8
100
AcDbEntity
  8
0
 62
   253
370
    13
100
AcDbLine
 10
-0.9990455896409003
 20
16.67862394002278
 30
0.0
 11
-0.2568349297933822
 21
17.42083459987031
 31
0.0
1001
CHIEFARC-LNWT
1070
    12
  0
LINE
  5
108
330
A8
100
AcDbEntity
  8
0
 62
   253
370
    13
100
AcDbLine
 10
-0.9990455896409003
 20
17.38573072120933
 30
0.0
 11
-0.2571608079073683
 21
18.1276155029429
 31
0.0
1001
CHIEFARC-LNWT
1070
    12
  0
LINE
  5
109
330
A8
100
AcDbEntity
  8
0
 62
   253
370
    13
100
AcDbLine
 10
-0.9990455896409003
 20
18.09283750239588
 30
0.0
 11
-0.2574866860213545
 21
18.83439640601549
 31
0.0
1001
CHIEFARC-LNWT
1070
    12
  0
LINE
  5
10A
330
A8
100
AcDbEntity
  8
0
 62
   253
370
    13
100
AcDbLine
 10
-0.9990455896409003
 20
18.79994428358242
 30
0.0
 11
-0.2578125641353406
 21
19.54117730908795
 31
0.0
1001
CHIEFARC-LNWT
1070
    12
  0
LINE
  5
10B
330
A8
100
AcDbEntity
  8
0
 62
   253
370
    13
100
AcDbLine
 10
-0.9990455896409003
 20
19.50705106476898
 30
0.0
 11
-0.2581384422493267
 21
20.24795821216054
 31
0.0
1001
CHIEFARC-LNWT
1070
    12
  0
LINE
  5
10C
330
A8
100
AcDbEntity
  8
0
 62
   253
370
    13
100
AcDbLine
 10
-0.9990455896409003
 20
20.21415784595552
 30
0.0
 11
-0.2584643203633129
 21
20.95473911523313
 31
0.0
1001
CHIEFARC-LNWT
1070
    12
  0
LINE
  5
10D
330
A8
100
AcDbEntity
  8
0
 62
   253
370
    13
100
AcDbLine
 10
-0.9990455896409003
 20
20.92126462714207
 30
0.0
 11
-0.2587901984772991
 21
21.66152001830572
 31
0.0
1001
CHIEFARC-LNWT
1070
    12
  0
LINE
  5
10E
330
A8
100
AcDbEntity
  8
0
 62
   253
370
    13
100
AcDbLine
 10
-0.9990455896409003
 20
21.62837140832862
 30
0.0
 11
-0.2591160765912852
 21
22.36830092137818
 31
0.0
1001
CHIEFARC-LNWT
1070
    12
  0
LINE
  5
10F
330
A8
100
AcDbEntity
  8
0
 62
   253
370
    13
100
AcDbLine
 10
-0.9990455896409003
 20
22.33547818951516
 30
0.0
 11
-0.2594419547052713
 21
23.07508182445077
 31
0.0
1001
CHIEFARC-LNWT
1070
    12
  0
LINE
  5
110
330
A8
100
AcDbEntity
  8
0
 62
   253
370
    13
100
AcDbLine
 10
-0.9990455896409003
 20
23.04258497070171
 30
0.0
 11
-0.2597678328192575
 21
23.78186272752336
 31
0.0
1001
CHIEFARC-LNWT
1070
    12
  0
LINE
  5
111
330
A8
100
AcDbEntity
  8
0
 62
   253
370
    13
100
AcDbLine
 10
-0.9990455896409003
 20
23.74969175188826
 30
0.0
 11
-0.4525456455659417
 21
24.29619169596322
 31
0.0
1001
CHIEFARC-LNWT
1070
    12
  0
LINE
  5
112
330
A8
100
AcDbEntity
  8
0
 62
   253
370
    13
100
AcDbLine
 10
0.2545611356205997
 20
24.29619169596322
 30
0.0
 11
0.3759544103590997
 21
24.41758497070172
 31
0.0
1001
CHIEFARC-LNWT
1070
    12
  0
LINE
  5
113
330
A8
100
AcDbEntity
  8
0
 62
   253
370
    13
100
AcDbLine
 10
-0.2556901452733156
 20
24.49304719625585
 30
0.0
 11
0.047457422198783
 21
24.79619476372795
 31
0.0
1001
CHIEFARC-LNWT
1070
    12
  0
LWPOLYLINE
  5
114
330
A8
100
AcDbEntity
  8
0
 62
     7
370
    18
100
AcDbPolyline
 90
       12
 70
     1
 43
0.0
 10
-0.2600049764000687
 20
24.29619169596322
 10
-0.2490455896409003
 20
24.79619169596322
 10
0.3759544103590998
 20
24.79619816251795
 10
0.3759544103590997
 20
24.29619169596322
 10
1.0009544103591
 20
24.29619169596322
 10
1.000954410359098
 20
0.0
 10
0.3759544103590997
 20
0.0
 10
0.3759544103590998
 20
0.5266787210156281
 10
-0.2490455896409002
 20
0.5269204920189168
 10
-0.2490455896409003
 20
0.0
 10
-0.9990455896409003
 20
0.0
 10
-0.9990455896408988
 20
24.29619169596322
  0
LWPOLYLINE
  5
115
330
A8
100
AcDbEntity
  8
0
100
AcDbPolyline
 90
       12
 70
     1
 43
0.0
 10
1.000954410358986
 20
0.0
 10
0.375954410358986
 20
0.0
 10
0.3759544103589861
 20
0.5266787210155144
 10
-0.249045589641014
 20
0.5269204920189583
 10
-0.2490455896410141
 20
0.0
 10
-0.999045589641014
 20
0.0
 10
-0.999045589641014
 20
23.29619169596322
 10
-0.249045589641014
 20
23.29619169596322
 10
-0.2490455896410139
 20
24.79619169596322
 10
0.3759544103589861
 20
24.79619816251795
 10
0.375954410358986
 20
24.29619169596322
 10
1.000954410358986
 20
24.29619169596322
  0
LWPOLYLINE
  5
116
330
A8
100
AcDbEntity
  8
0
100
AcDbPolyline
 90
        3
 70
     0
 43
0.0
 10
-0.9990455896409003
 20
23.29619169596322
 10
-1.000954410359213
 20
24.29590717846838
 10
-0.2553157086342708
 20
24.29590717846838
  0
ENDBLK
  5
118
330
A8
100
AcDbEntity
  8
0
100
AcDbBlockEnd
  0
BLOCK
  5
187
330
11F
100
AcDbEntity
  8
0
100
AcDbBlockBegin
  2
5__Bevel
 70
     0
 10
0.0
 20
0.0
 30
0.0
  3
5__Bevel
  1

  0
LINE
  5
120
330
11F
100
AcDbEntity
  8
0
 62
   254
370
     0
100
AcDbLine
 10
0.0042772373097917
 20
0.0042772373097917
 30
0.0
 11
0.1124631756624808
 21
0.1124631756624801
 31
0.0
  0
LINE
  5
121
330
11F
100
AcDbEntity
  8
0
 62
   254
370
     0
100
AcDbLine
 10
-0.1653644444656727
 20
0.0114122508309642
 30
0.0
 11
0.1232903519467153
 21
0.3000670472433509
 31
0.0
  0
LINE
  5
122
330
11F
100
AcDbEntity
  8
0
 62
   254
370
     0
100
AcDbLine
 10
-0.3350061262411371
 20
0.0185472643521367
 30
0.0
 11
0.1341175282309498
 21
0.4876709188242234
 31
0.0
  0
LINE
  5
123
330
11F
100
AcDbEntity
  8
0
 62
   254
370
     0
100
AcDbLine
 10
-0.3425688386792394
 20
0.1877612472106712
 30
0.0
 11
0.1449447045151842
 21
0.6752747904050946
 31
0.0
  0
LINE
  5
124
330
11F
100
AcDbEntity
  8
0
 62
   254
370
     0
100
AcDbLine
 10
-0.3149227076312004
 20
0.3921840735553471
 30
0.0
 11
0.1557718807994187
 21
0.8628786619859663
 31
0.0
  0
LINE
  5
125
330
11F
100
AcDbEntity
  8
0
 62
   254
370
     0
100
AcDbLine
 10
-0.2872765765831615
 20
0.596606899900023
 30
0.0
 11
0.1665990570836531
 21
1.050482533566837
 31
0.0
  0
LINE
  5
126
330
11F
100
AcDbEntity
  8
0
 62
   254
370
     0
100
AcDbLine
 10
-0.2596304455351226
 20
0.8010297262446989
 30
0.0
 11
0.1774262333678876
 21
1.238086405147708
 31
0.0
  0
LINE
  5
127
330
11F
100
AcDbEntity
  8
0
 62
   254
370
     0
100
AcDbLine
 10
-0.2319843144870837
 20
1.005452552589374
 30
0.0
 11
0.1882534096521221
 21
1.42569027672858
 31
0.0
  0
LINE
  5
128
330
11F
100
AcDbEntity
  8
0
 62
   254
370
     0
100
AcDbLine
 10
-0.2043381834390449
 20
1.20987537893405
 30
0.0
 11
0.1990805859363565
 21
1.613294148309451
 31
0.0
  0
LINE
  5
129
330
11F
100
AcDbEntity
  8
0
 62
   254
370
     0
100
AcDbLine
 10
-0.1766920523910059
 20
1.414298205278726
 30
0.0
 11
0.209907762220591
 21
1.800898019890323
 31
0.0
  0
LINE
  5
12A
330
11F
100
AcDbEntity
  8
0
 62
   254
370
     0
100
AcDbLine
 10
-0.149045921342967
 20
1.618721031623402
 30
0.0
 11
0.2207349385048254
 21
1.988501891471194
 31
0.0
  0
LINE
  5
12B
330
11F
100
AcDbEntity
  8
0
 62
   254
370
     0
100
AcDbLine
 10
-0.1213997902949281
 20
1.823143857968078
 30
0.0
 11
0.2315621147890599
 21
2.176105763052065
 31
0.0
  0
LINE
  5
12C
330
11F
100
AcDbEntity
  8
0
 62
   254
370
     0
100
AcDbLine
 10
-0.0937536592468892
 20
2.027566684312753
 30
0.0
 11
0.2423892910732943
 21
2.363709634632937
 31
0.0
  0
LINE
  5
12D
330
11F
100
AcDbEntity
  8
0
 62
   254
370
     0
100
AcDbLine
 10
-0.0661075281988504
 20
2.231989510657429
 30
0.0
 11
0.2532164673575288
 21
2.551313506213808
 31
0.0
  0
LINE
  5
12E
330
11F
100
AcDbEntity
  8
0
 62
   254
370
     0
100
AcDbLine
 10
-0.0384613971508115
 20
2.436412337002105
 30
0.0
 11
0.2640436436417632
 21
2.73891737779468
 31
0.0
  0
LINE
  5
12F
330
11F
100
AcDbEntity
  8
0
 62
   254
370
     0
100
AcDbLine
 10
-0.0108152661027724
 20
2.640835163346781
 30
0.0
 11
0.2748708199259977
 21
2.926521249375551
 31
0.0
  0
LINE
  5
130
330
11F
100
AcDbEntity
  8
0
 62
   254
370
     0
100
AcDbLine
 10
0.0168308649452665
 20
2.845257989691457
 30
0.0
 11
0.2856979962102321
 21
3.114125120956421
 31
0.0
  0
LINE
  5
131
330
11F
100
AcDbEntity
  8
0
 62
   254
370
     0
100
AcDbLine
 10
0.0444769959933054
 20
3.049680816036133
 30
0.0
 11
0.2965251724944666
 21
3.301728992537293
 31
0.0
  0
LINE
  5
132
330
11F
100
AcDbEntity
  8
0
 62
   254
370
     0
100
AcDbLine
 10
0.0721231270413442
 20
3.254103642380808
 30
0.0
 11
0.307352348778701
 21
3.489332864118165
 31
0.0
  0
LINE
  5
133
330
11F
100
AcDbEntity
  8
0
 62
   254
370
     0
100
AcDbLine
 10
0.0997692580893831
 20
3.458526468725484
 30
0.0
 11
0.3181795250629355
 21
3.676936735699035
 31
0.0
  0
LINE
  5
134
330
11F
100
AcDbEntity
  8
0
 62
   254
370
     0
100
AcDbLine
 10
0.1274153891374221
 20
3.662949295070161
 30
0.0
 11
0.32900670134717
 21
3.864540607279908
 31
0.0
  0
LINE
  5
135
330
11F
100
AcDbEntity
  8
0
 62
   254
370
     0
100
AcDbLine
 10
0.155061520185461
 20
3.867372121414836
 30
0.0
 11
0.3398338776314044
 21
4.052144478860779
 31
0.0
  0
LINE
  5
136
330
11F
100
AcDbEntity
  8
0
 62
   254
370
     0
100
AcDbLine
 10
0.1827076512334997
 20
4.071794947759511
 30
0.0
 11
0.3506610539156388
 21
4.23974835044165
 31
0.0
  0
LINE
  5
137
330
11F
100
AcDbEntity
  8
0
 62
   254
370
     0
100
AcDbLine
 10
0.2103537822815387
 20
4.276217774104187
 30
0.0
 11
0.3614882301998733
 21
4.427352222022521
 31
0.0
  0
LINE
  5
138
330
11F
100
AcDbEntity
  8
0
 62
   254
370
     0
100
AcDbLine
 10
0.2379999133295777
 20
4.480640600448863
 30
0.0
 11
0.2550669655642125
 21
4.497707652683497
 31
0.0
  0
LWPOLYLINE
  5
139
330
11F
100
AcDbEntity
  8
0
 62
    35
370
    18
100
AcDbPolyline
 90
        4
 70
     1
 43
0.0
 10
0.3652811206104085
 20
4.493072120435472
 10
0.1059725919761111
 20
0.0000000000000009
 10
-0.3652811206104111
 20
0.0198206099822774
 10
0.2403915357817129
 20
4.498324891258532
  0
LINE
  5
13A
330
11F
100
AcDbEntity
  8
0
 62
   254
370
     0
100
AcDbLine
 10
0.0889901082806594
 20
3.624524014213397
 30
0.0
 11
0.1070564785704349
 21
3.642590384503173
 31
0.0
  0
LINE
  5
13B
330
11F
100
AcDbEntity
  8
0
 62
   254
370
     0
100
AcDbLine
 10
-0.080651573494805
 20
3.63165902773457
 30
0.0
 11
0.1178836548546693
 21
3.830194256084043
 31
0.0
  0
LINE
  5
13C
330
11F
100
AcDbEntity
  8
0
 62
   254
370
     0
100
AcDbLine
 10
-0.2502932552702689
 20
3.638794041255742
 30
0.0
 11
0.1287108311389037
 21
4.017798127664913
 31
0.0
  0
LINE
  5
13D
330
11F
100
AcDbEntity
  8
0
 62
   254
370
     0
100
AcDbLine
 10
-0.3563743085838354
 20
3.709489683238812
 30
0.0
 11
0.1395380074231383
 21
4.205401999245787
 31
0.0
  0
LINE
  5
13E
330
11F
100
AcDbEntity
  8
0
 62
   254
370
     0
100
AcDbLine
 10
-0.3287281775357965
 20
3.913912509583488
 30
0.0
 11
0.1503651837073727
 21
4.393005870826657
 31
0.0
  0
LINE
  5
13F
330
11F
100
AcDbEntity
  8
0
 62
   254
370
     0
100
AcDbLine
 10
-0.3010820464877575
 20
4.118335335928164
 30
0.0
 11
0.1611923599916072
 21
4.58060974240753
 31
0.0
  0
LINE
  5
140
330
11F
100
AcDbEntity
  8
0
 62
   254
370
     0
100
AcDbLine
 10
-0.2734359154397186
 20
4.32275816227284
 30
0.0
 11
0.1720195362758417
 21
4.768213613988401
 31
0.0
  0
LINE
  5
141
330
11F
100
AcDbEntity
  8
0
 62
   254
370
     0
100
AcDbLine
 10
-0.2457897843916798
 20
4.527180988617515
 30
0.0
 11
0.182846712560076
 21
4.95581748556927
 31
0.0
  0
LINE
  5
142
330
11F
100
AcDbEntity
  8
0
 62
   254
370
     0
100
AcDbLine
 10
-0.2181436533436409
 20
4.731603814962192
 30
0.0
 11
0.1936738888443105
 21
5.143421357150143
 31
0.0
  0
LINE
  5
143
330
11F
100
AcDbEntity
  8
0
 62
   254
370
     0
100
AcDbLine
 10
-0.190497522295602
 20
4.936026641306867
 30
0.0
 11
0.2045010651285449
 21
5.331025228731013
 31
0.0
  0
LINE
  5
144
330
11F
100
AcDbEntity
  8
0
 62
   254
370
     0
100
AcDbLine
 10
-0.162851391247563
 20
5.140449467651544
 30
0.0
 11
0.2153282414127794
 21
5.518629100311886
 31
0.0
  0
LINE
  5
145
330
11F
100
AcDbEntity
  8
0
 62
   254
370
     0
100
AcDbLine
 10
-0.1352052601995241
 20
5.34487229399622
 30
0.0
 11
0.2261554176970139
 21
5.706232971892756
 31
0.0
  0
LINE
  5
146
330
11F
100
AcDbEntity
  8
0
 62
   254
370
     0
100
AcDbLine
 10
-0.1075591291514852
 20
5.549295120340894
 30
0.0
 11
0.2369825939812483
 21
5.893836843473627
 31
0.0
  0
LINE
  5
147
330
11F
100
AcDbEntity
  8
0
 62
   254
370
     0
100
AcDbLine
 10
-0.0799129981034464
 20
5.75371794668557
 30
0.0
 11
0.2478097702654828
 21
6.0814407150545
 31
0.0
  0
LINE
  5
148
330
11F
100
AcDbEntity
  8
0
 62
   254
370
     0
100
AcDbLine
 10
-0.0522668670554075
 20
5.958140773030246
 30
0.0
 11
0.2586369465497172
 21
6.26904458663537
 31
0.0
  0
LINE
  5
149
330
11F
100
AcDbEntity
  8
0
 62
   254
370
     0
100
AcDbLine
 10
-0.0246207360073684
 20
6.162563599374923
 30
0.0
 11
0.2694641228339517
 21
6.456648458216242
 31
0.0
  0
LINE
  5
14A
330
11F
100
AcDbEntity
  8
0
 62
   254
370
     0
100
AcDbLine
 10
0.0030253950406705
 20
6.366986425719599
 30
0.0
 11
0.2802912991181862
 21
6.644252329797114
 31
0.0
  0
LINE
  5
14B
330
11F
100
AcDbEntity
  8
0
 62
   254
370
     0
100
AcDbLine
 10
0.0306715260887093
 20
6.571409252064274
 30
0.0
 11
0.2911184754024206
 21
6.831856201377985
 31
0.0
  0
LINE
  5
14C
330
11F
100
AcDbEntity
  8
0
 62
   254
370
     0
100
AcDbLine
 10
0.0583176571367481
 20
6.775832078408949
 30
0.0
 11
0.301945651686655
 21
7.019460072958855
 31
0.0
  0
LINE
  5
14D
330
11F
100
AcDbEntity
  8
0
 62
   254
370
     0
100
AcDbLine
 10
0.085963788184787
 20
6.980254904753625
 30
0.0
 11
0.3127728279708895
 21
7.207063944539726
 31
0.0
  0
LINE
  5
14E
330
11F
100
AcDbEntity
  8
0
 62
   254
370
     0
100
AcDbLine
 10
0.1136099192328262
 20
7.184677731098303
 30
0.0
 11
0.323600004255124
 21
7.394667816120599
 31
0.0
  0
LINE
  5
14F
330
11F
100
AcDbEntity
  8
0
 62
   254
370
     0
100
AcDbLine
 10
0.141256050280865
 20
7.389100557442977
 30
0.0
 11
0.3344271805393584
 21
7.58227168770147
 31
0.0
  0
LINE
  5
150
330
11F
100
AcDbEntity
  8
0
 62
   254
370
     0
100
AcDbLine
 10
0.1689021813289038
 20
7.593523383787653
 30
0.0
 11
0.3452543568235928
 21
7.769875559282341
 31
0.0
  0
LINE
  5
151
330
11F
100
AcDbEntity
  8
0
 62
   254
370
     0
100
AcDbLine
 10
0.1965483123769427
 20
7.797946210132328
 30
0.0
 11
0.3560815331078274
 21
7.957479430863213
 31
0.0
  0
LINE
  5
152
330
11F
100
AcDbEntity
  8
0
 62
   254
370
     0
100
AcDbLine
 10
0.2241944434249815
 20
8.002369036477003
 30
0.0
 11
0.3397798365350795
 21
8.117954429587101
 31
0.0
  0
LWPOLYLINE
  5
153
330
11F
100
AcDbEntity
  8
0
 62
    35
370
    18
100
AcDbPolyline
 90
        4
 70
     1
 43
0.0
 10
0.3652811206104085
 20
8.116881862958543
 10
0.1059725919761111
 20
3.623809742523073
 10
-0.3652811206104111
 20
3.643630352505349
 10
0.2403915357817129
 20
8.122134633781604
  0
LINE
  5
154
330
11F
100
AcDbEntity
  8
0
 62
   254
370
     0
100
AcDbLine
 10
-0.0258202461256985
 20
10.75755816696915
 30
0.0
 11
0.1143841113397115
 21
10.89776252443456
 31
0.0
  0
LINE
  5
155
330
11F
100
AcDbEntity
  8
0
 62
   254
370
     0
100
AcDbLine
 10
-0.1954619279011641
 20
10.76469318049032
 30
0.0
 11
0.125211287623946
 21
11.08536639601543
 31
0.0
  0
LINE
  5
156
330
11F
100
AcDbEntity
  8
0
 62
   254
370
     0
100
AcDbLine
 10
-0.3651036096766302
 20
10.77182819401149
 30
0.0
 11
0.1360384639081805
 21
11.2729702675963
 31
0.0
  0
LINE
  5
157
330
11F
100
AcDbEntity
  8
0
 62
   254
370
     0
100
AcDbLine
 10
-0.3376639181280797
 20
10.97604458085668
 30
0.0
 11
0.1468656401924147
 21
11.46057413917717
 31
0.0
  0
LINE
  5
158
330
11F
100
AcDbEntity
  8
0
 62
   254
370
     0
100
AcDbLine
 10
-0.3100177870800405
 20
11.18046740720136
 30
0.0
 11
0.1576928164766494
 21
11.64817801075805
 31
0.0
  0
LINE
  5
159
330
11F
100
AcDbEntity
  8
0
 62
   254
370
     0
100
AcDbLine
 10
-0.282371656032002
 20
11.38489023354603
 30
0.0
 11
0.1685199927608838
 21
11.83578188233892
 31
0.0
  0
LINE
  5
15A
330
11F
100
AcDbEntity
  8
0
 62
   254
370
     0
100
AcDbLine
 10
-0.2547255249839629
 20
11.58931305989071
 30
0.0
 11
0.1793471690451183
 21
12.02338575391979
 31
0.0
  0
LINE
  5
15B
330
11F
100
AcDbEntity
  8
0
 62
   254
370
     0
100
AcDbLine
 10
-0.2270793939359238
 20
11.79373588623539
 30
0.0
 11
0.1901743453293527
 21
12.21098962550066
 31
0.0
  0
LINE
  5
15C
330
11F
100
AcDbEntity
  8
0
 62
   254
370
     0
100
AcDbLine
 10
-0.1994332628878852
 20
11.99815871258006
 30
0.0
 11
0.201001521613587
 21
12.39859349708153
 31
0.0
  0
LINE
  5
15D
330
11F
100
AcDbEntity
  8
0
 62
   254
370
     0
100
AcDbLine
 10
-0.171787131839846
 20
12.20258153892474
 30
0.0
 11
0.2118286978978217
 21
12.5861973686624
 31
0.0
  0
LINE
  5
15E
330
11F
100
AcDbEntity
  8
0
 62
   254
370
     0
100
AcDbLine
 10
-0.1441410007918076
 20
12.40700436526941
 30
0.0
 11
0.222655874182056
 21
12.77380124024327
 31
0.0
  0
LINE
  5
15F
330
11F
100
AcDbEntity
  8
0
 62
   254
370
     0
100
AcDbLine
 10
-0.1164948697437685
 20
12.61142719161409
 30
0.0
 11
0.2334830504662905
 21
12.96140511182415
 31
0.0
  0
LINE
  5
160
330
11F
100
AcDbEntity
  8
0
 62
   254
370
     0
100
AcDbLine
 10
-0.0888487386957293
 20
12.81585001795876
 30
0.0
 11
0.244310226750525
 21
13.14900898340502
 31
0.0
  0
LINE
  5
161
330
11F
100
AcDbEntity
  8
0
 62
   254
370
     0
100
AcDbLine
 10
-0.0612026076476908
 20
13.02027284430344
 30
0.0
 11
0.2551374030347593
 21
13.33661285498589
 31
0.0
  0
LINE
  5
162
330
11F
100
AcDbEntity
  8
0
 62
   254
370
     0
100
AcDbLine
 10
-0.0335564765996514
 20
13.22469567064812
 30
0.0
 11
0.2659645793189939
 21
13.52421672656676
 31
0.0
  0
LINE
  5
163
330
11F
100
AcDbEntity
  8
0
 62
   254
370
     0
100
AcDbLine
 10
-0.0059103455516131
 20
13.42911849699279
 30
0.0
 11
0.2767917556032283
 21
13.71182059814763
 31
0.0
  0
LINE
  5
164
330
11F
100
AcDbEntity
  8
0
 62
   254
370
     0
100
AcDbLine
 10
0.021735785496426
 20
13.63354132333746
 30
0.0
 11
0.2876189318874628
 21
13.8994244697285
 31
0.0
  0
LINE
  5
165
330
11F
100
AcDbEntity
  8
0
 62
   254
370
     0
100
AcDbLine
 10
0.0493819165444653
 20
13.83796414968214
 30
0.0
 11
0.2984461081716973
 21
14.08702834130937
 31
0.0
  0
LINE
  5
166
330
11F
100
AcDbEntity
  8
0
 62
   254
370
     0
100
AcDbLine
 10
0.0770280475925038
 20
14.04238697602682
 30
0.0
 11
0.3092732844559316
 21
14.27463221289024
 31
0.0
  0
LINE
  5
167
330
11F
100
AcDbEntity
  8
0
 62
   254
370
     0
100
AcDbLine
 10
0.1046741786405431
 20
14.24680980237149
 30
0.0
 11
0.3201004607401662
 21
14.46223608447112
 31
0.0
  0
LINE
  5
168
330
11F
100
AcDbEntity
  8
0
 62
   254
370
     0
100
AcDbLine
 10
0.1323203096885816
 20
14.45123262871617
 30
0.0
 11
0.3309276370244005
 21
14.64983995605199
 31
0.0
  0
LINE
  5
169
330
11F
100
AcDbEntity
  8
0
 62
   254
370
     0
100
AcDbLine
 10
0.1599664407366206
 20
14.65565545506084
 30
0.0
 11
0.3417548133086349
 21
14.83744382763286
 31
0.0
  0
LINE
  5
16A
330
11F
100
AcDbEntity
  8
0
 62
   254
370
     0
100
AcDbLine
 10
0.1876125717846598
 20
14.86007828140552
 30
0.0
 11
0.3525819895928696
 21
15.02504769921373
 31
0.0
  0
LINE
  5
16B
330
11F
100
AcDbEntity
  8
0
 62
   254
370
     0
100
AcDbLine
 10
0.2152587028326982
 20
15.06450110775019
 30
0.0
 11
0.3634091658771039
 21
15.2126515707946
 31
0.0
  0
LWPOLYLINE
  5
16C
330
11F
100
AcDbEntity
  8
0
 62
    35
370
    18
100
AcDbPolyline
 90
        4
 70
     1
 43
0.0
 10
0.3652811206104085
 20
15.24508717045359
 10
0.1059725919761111
 20
10.75201505001812
 10
-0.3652811206104111
 20
10.77183566000039
 10
0.2403915357817129
 20
15.25033994127665
  0
LINE
  5
16D
330
11F
100
AcDbEntity
  8
0
 62
   254
370
     0
100
AcDbLine
 10
0.059108564678896
 20
7.130176376544371
 30
0.0
 11
0.1089636321475231
 21
7.180031444012998
 31
0.0
  0
LINE
  5
16E
330
11F
100
AcDbEntity
  8
0
 62
   254
370
     0
100
AcDbLine
 10
-0.1105331170965679
 20
7.137311390065544
 30
0.0
 11
0.1197908084317575
 21
7.367635315593868
 31
0.0
  0
LINE
  5
16F
330
11F
100
AcDbEntity
  8
0
 62
   254
370
     0
100
AcDbLine
 10
-0.2801747988720323
 20
7.144446403586716
 30
0.0
 11
0.1306179847159919
 21
7.555239187174739
 31
0.0
  0
LINE
  5
170
330
11F
100
AcDbEntity
  8
0
 62
   254
370
     0
100
AcDbLine
 10
-0.3515045792715225
 20
7.249893318483863
 30
0.0
 11
0.1414451610002264
 21
7.742843058755611
 31
0.0
  0
LINE
  5
171
330
11F
100
AcDbEntity
  8
0
 62
   254
370
     0
100
AcDbLine
 10
-0.3238584482234837
 20
7.454316144828538
 30
0.0
 11
0.1522723372844609
 21
7.930446930336483
 31
0.0
  0
LINE
  5
172
330
11F
100
AcDbEntity
  8
0
 62
   254
370
     0
100
AcDbLine
 10
-0.2962123171754446
 20
7.658738971173215
 30
0.0
 11
0.1630995135686954
 21
8.118050801917356
 31
0.0
  0
LINE
  5
173
330
11F
100
AcDbEntity
  8
0
 62
   254
370
     0
100
AcDbLine
 10
-0.2685661861274059
 20
7.863161797517889
 30
0.0
 11
0.1739266898529298
 21
8.305654673498225
 31
0.0
  0
LINE
  5
174
330
11F
100
AcDbEntity
  8
0
 62
   254
370
     0
100
AcDbLine
 10
-0.2409200550793669
 20
8.067584623862565
 30
0.0
 11
0.1847538661371642
 21
8.493258545079097
 31
0.0
  0
LINE
  5
175
330
11F
100
AcDbEntity
  8
0
 62
   254
370
     0
100
AcDbLine
 10
-0.2132739240313278
 20
8.272007450207244
 30
0.0
 11
0.1955810424213987
 21
8.680862416659968
 31
0.0
  0
LINE
  5
176
330
11F
100
AcDbEntity
  8
0
 62
   254
370
     0
100
AcDbLine
 10
-0.1856277929832892
 20
8.476430276551916
 30
0.0
 11
0.2064082187056331
 21
8.868466288240839
 31
0.0
  0
LINE
  5
177
330
11F
100
AcDbEntity
  8
0
 62
   254
370
     0
100
AcDbLine
 10
-0.1579816619352502
 20
8.680853102896593
 30
0.0
 11
0.2172353949898676
 21
9.056070159821711
 31
0.0
  0
LINE
  5
178
330
11F
100
AcDbEntity
  8
0
 62
   254
370
     0
100
AcDbLine
 10
-0.1303355308872114
 20
8.885275929241267
 30
0.0
 11
0.228062571274102
 21
9.243674031402582
 31
0.0
  0
LINE
  5
179
330
11F
100
AcDbEntity
  8
0
 62
   254
370
     0
100
AcDbLine
 10
-0.1026893998391724
 20
9.089698755585944
 30
0.0
 11
0.2388897475583364
 21
9.431277902983453
 31
0.0
  0
LINE
  5
17A
330
11F
100
AcDbEntity
  8
0
 62
   254
370
     0
100
AcDbLine
 10
-0.0750432687911333
 20
9.294121581930622
 30
0.0
 11
0.249716923842571
 21
9.618881774564326
 31
0.0
  0
LINE
  5
17B
330
11F
100
AcDbEntity
  8
0
 62
   254
370
     0
100
AcDbLine
 10
-0.0473971377430947
 20
9.498544408275295
 30
0.0
 11
0.2605441001268053
 21
9.806485646145195
 31
0.0
  0
LINE
  5
17C
330
11F
100
AcDbEntity
  8
0
 62
   254
370
     0
100
AcDbLine
 10
-0.0197510066950555
 20
9.702967234619972
 30
0.0
 11
0.2713712764110399
 21
9.994089517726067
 31
0.0
  0
LINE
  5
17D
330
11F
100
AcDbEntity
  8
0
 62
   254
370
     0
100
AcDbLine
 10
0.007895124352983
 20
9.907390060964646
 30
0.0
 11
0.2821984526952742
 21
10.18169338930694
 31
0.0
  0
LINE
  5
17E
330
11F
100
AcDbEntity
  8
0
 62
   254
370
     0
100
AcDbLine
 10
0.0355412554010221
 20
10.11181288730932
 30
0.0
 11
0.2930256289795087
 21
10.36929726088781
 31
0.0
  0
LINE
  5
17F
330
11F
100
AcDbEntity
  8
0
 62
   254
370
     0
100
AcDbLine
 10
0.0631873864490613
 20
10.316235713654
 30
0.0
 11
0.3038528052637433
 21
10.55690113246868
 31
0.0
  0
LINE
  5
180
330
11F
100
AcDbEntity
  8
0
 62
   254
370
     0
100
AcDbLine
 10
0.0908335174970999
 20
10.52065853999867
 30
0.0
 11
0.3146799815479776
 21
10.74450500404955
 31
0.0
  0
LINE
  5
181
330
11F
100
AcDbEntity
  8
0
 62
   254
370
     0
100
AcDbLine
 10
0.118479648545139
 20
10.72508136634335
 30
0.0
 11
0.3255071578322122
 21
10.93210887563042
 31
0.0
  0
LINE
  5
182
330
11F
100
AcDbEntity
  8
0
 62
   254
370
     0
100
AcDbLine
 10
0.1461257795931775
 20
10.92950419268803
 30
0.0
 11
0.3363343341164465
 21
11.11971274721129
 31
0.0
  0
LINE
  5
183
330
11F
100
AcDbEntity
  8
0
 62
   254
370
     0
100
AcDbLine
 10
0.1737719106412166
 20
11.1339270190327
 30
0.0
 11
0.347161510400681
 21
11.30731661879217
 31
0.0
  0
LINE
  5
184
330
11F
100
AcDbEntity
  8
0
 62
   254
370
     0
100
AcDbLine
 10
0.2014180416892559
 20
11.33834984537738
 30
0.0
 11
0.3579886866849155
 21
11.49492049037304
 31
0.0
  0
LINE
  5
185
330
11F
100
AcDbEntity
  8
0
 62
   254
370
     0
100
AcDbLine
 10
0.2290641727372944
 20
11.54277267172205
 30
0.0
 11
0.3098982929333173
 21
11.62360679191807
 31
0.0
  0
LWPOLYLINE
  5
186
330
11F
100
AcDbEntity
  8
0
 62
    35
370
    18
100
AcDbPolyline
 90
        4
 70
     1
 43
0.0
 10
0.3652811206104085
 20
11.62127742793052
 10
0.1059725919761111
 20
7.128205307495045
 10
-0.3652811206104111
 20
7.148025917477321
 10
0.2403915357817129
 20
11.62653019875358
  0
ENDBLK
  5
188
330
11F
100
AcDbEntity
  8
0
100
AcDbBlockEnd
  0
BLOCK
  5
1D9
330
1CC
100
AcDbEntity
  8
0
100
AcDbBlockBegin
  2
block34_1
 70
     0
 10
0.0
 20
0.0
 30
0.0
  3
block34_1
  1

  0
SOLID
  5
1CD
330
1CC
100
AcDbEntity
  8
0
 62
     7
100
AcDbTrace
 10
-2.155392080373076
 20
11.38833587986255
 30
0.0
 11
-0.9138608348533808
 21
9.977601040287482
 31
0.0
 12
-2.155392080373076
 22
11.38833587986255
 32
0.0
 13
-3.542131957776974
 23
9.999144246213064
 33
0.0
  0
SOLID
  5
1CE
330
1CC
100
AcDbEntity
  8
0
 62
     7
100
AcDbTrace
 10
-0.9138608348533808
 20
9.977601040287482
 30
0.0
 11
-2.155392080373076
 21
11.38833587986255
 31
0.0
 12
2.304085137550487
 22
20.99095895392065
 32
0.0
 13
-2.142131501653921
 23
20.03351407291211
 33
0.0
  0
SOLID
  5
1CF
330
1CC
100
AcDbEntity
  8
0
 62
     7
100
AcDbTrace
 10
-0.9138608348533808
 20
9.977601040287482
 30
0.0
 11
2.304085137550487
 21
20.99095895392065
 31
0.0
 12
0.9418057358673197
 22
10.95530735246791
 32
0.0
 13
2.315424389813984
 23
12.32892600641469
 33
0.0
  0
SOLID
  5
1D0
330
1CC
100
AcDbEntity
  8
0
 62
     7
100
AcDbTrace
 10
2.286042172617272
 20
9.691872013008947
 30
0.0
 11
0.9418057358673195
 21
10.95530735246791
 31
0.0
 12
2.286042172617272
 22
9.691872013008947
 32
0.0
 13
3.542131957777087
 23
10.94796179816876
 33
0.0
  0
SOLID
  5
1D1
330
1CC
100
AcDbEntity
  8
0
 62
     7
100
AcDbTrace
 10
0.9418057358673195
 20
10.95530735246791
 30
0.0
 11
2.286042172617272
 21
9.691872013008947
 31
0.0
 12
-2.161731025513177
 22
0.0040937347157524
 32
0.0
 13
2.309433580608243
 23
0.959624880378783
 33
0.0
  0
SOLID
  5
1D2
330
1CC
100
AcDbEntity
  8
0
 62
     7
100
AcDbTrace
 10
0.9418057358673195
 20
10.95530735246791
 30
0.0
 11
-2.161731025513177
 21
0.0040937347157524
 31
0.0
 12
-0.9138608348533808
 22
9.977601040287482
 32
0.0
 13
-2.163366778538375
 23
8.728095096602488
 33
0.0
  0
LWPOLYLINE
  5
1D3
330
1CC
100
AcDbEntity
  8
0
 62
     7
100
AcDbPolyline
 90
       12
 70
     1
 43
0.0
 10
2.304085137550487
 20
20.99095895392065
 10
2.315424389813984
 20
12.32892600641469
 10
0.9418057358673195
 20
10.95530735246791
 10
3.542131957777087
 20
10.94796179816876
 10
2.286042172617272
 20
9.691872013008947
 10
2.309433580608243
 20
0.959624880378783
 10
-2.161731025513177
 20
0.0040937347157524
 10
-2.163366778538375
 20
8.728095096602488
 10
-0.9138608348533808
 20
9.977601040287482
 10
-3.542131957776974
 20
9.999144246213064
 10
-2.155392080373076
 20
11.38833587986255
 10
-2.142131501653921
 20
20.03351407291211
  0
INSERT
  5
1D8
330
1CC
100
AcDbEntity
  8
0
  6
Continuous
370
     0
100
AcDbBlockReference
  2
Break_Line
 10
-2.231451014468348
 20
0.0
 30
0.0
1001
CHIEFARC-LNWT
1070
     0
  0
ENDBLK
  5
1DA
330
1CC
100
AcDbEntity
  8
0
100
AcDbBlockEnd
  0
BLOCK
  5
1D6
330
1D4
100
AcDbEntity
  8
0
100
AcDbBlockBegin
  2
Break_Line
 70
     0
 10
0.0
 20
0.0
 30
0.0
  3
Break_Line
  1

  0
LWPOLYLINE
  5
1D5
330
1D4
100
AcDbEntity
  8
0
100
AcDbPolyline
 90
        6
 70
     0
 43
0.0
 10
0.0758531737247452
 20
20.02936230674345
 10
0.0758531737247452
 20
11.37178725632516
 10
-1.309784784366492
 20
9.986149298233912
 10
1.309784784366492
 20
9.986149298233954
 10
0.0726287886091581
 20
8.74899330247662
 10
0.0726287886091583
 20
0.0000000000000284
  0
ENDBLK
  5
1D7
330
1D4
100
AcDbEntity
  8
0
100
AcDbBlockEnd
  0
ENDSEC
  0
SECTION
  2
ENTITIES
  0
SOLID
  5
3D
330
1F
100
AcDbEntity
  8
_DEFAULT_CAD_LAYER
 62
   254
100
AcDbTrace
 10
452.1694495131569
 20
591.7290497024726
 30
0.0
 11
452.1680164510147
 21
591.7400315382324
 31
0.0
 12
452.1694495131569
 22
591.7290497024726
 32
0.0
 13
452.0838604935694
 23
591.7290497024726
 33
0.0
  0
SOLID
  5
3E
330
1F
100
AcDbEntity
  8
_DEFAULT_CAD_LAYER
 62
   254
100
AcDbTrace
 10
452.1680164510147
 20
591.7400315382324
 30
0.0
 11
451.467191863485
 21
592.0171268179708
 31
0.0
 12
451.1694495131569
 22
594.8769401600332
 32
0.0
 13
451.1694495131569
 23
592.7290497024726
 33
0.0
  0
SOLID
  5
3F
330
1F
100
AcDbEntity
  8
_DEFAULT_CAD_LAYER
 62
   254
100
AcDbTrace
 10
452.1680164510147
 20
591.7400315382324
 30
0.0
 11
451.1694495131569
 21
594.8769401600332
 31
0.0
 12
452.1694495131569
 22
595.8769401600332
 32
0.0
 13
451.3011549709798
 23
595.3729891374795
 33
0.0
  0
SOLID
  5
40
330
1F
100
AcDbEntity
  8
_DEFAULT_CAD_LAYER
 62
   254
100
AcDbTrace
 10
452.1680164510147
 20
591.7400315382324
 30
0.0
 11
452.1694495131569
 21
595.8769401600332
 31
0.0
 12
452.3404783591039
 22
595.8434531041206
 32
0.0
 13
452.0838604935694
 23
595.8769401600332
 33
0.0
  0
SOLID
  5
41
330
1F
100
AcDbEntity
  8
_DEFAULT_CAD_LAYER
 62
   254
100
AcDbTrace
 10
452.1680164510147
 20
591.7400315382324
 30
0.0
 11
452.3404783591039
 21
595.8434531041206
 31
0.0
 12
453.0838604935694
 22
592.7290497024726
 32
0.0
 13
453.0838604935694
 23
594.8769401600332
 33
0.0
  0
SOLID
  5
42
330
1F
100
AcDbEntity
  8
_DEFAULT_CAD_LAYER
 62
   254
100
AcDbTrace
 10
452.1680164510147
 20
591.7400315382324
 30
0.0
 11
453.0838604935694
 21
592.7290497024726
 31
0.0
 12
452.1680164510147
 22
591.7400315382324
 32
0.0
 13
452.3404783591039
 23
591.7625367583852
 33
0.0
  0
SOLID
  5
43
330
1F
100
AcDbEntity
  8
_DEFAULT_CAD_LAYER
 62
   254
100
AcDbTrace
 10
451.467191863485
 20
592.0171268179708
 30
0.0
 11
452.1680164510147
 21
591.7400315382324
 31
0.0
 12
451.467191863485
 22
592.0171268179708
 32
0.0
 13
452.1694495131569
 23
591.7290497024726
 33
0.0
  0
LWPOLYLINE
  5
44
330
1F
100
AcDbEntity
  8
_DEFAULT_CAD_LAYER
 62
     7
100
AcDbPolyline
 90
        8
 70
     1
 43
0.0
 10
451.1694495131569
 20
594.8769401600332
 42
-0.414213562373095
 10
452.1694495131569
 20
595.8769401600332
 10
452.0838604935694
 20
595.8769401600332
 42
-0.414213562373095
 10
453.0838604935694
 20
594.8769401600332
 10
453.0838604935694
 20
592.7290497024726
 42
-0.414213562373095
 10
452.0838604935694
 20
591.7290497024726
 10
452.1694495131569
 20
591.7290497024726
 42
-0.414213562373095
 10
451.1694495131569
 20
592.7290497024726
  0
SOLID
  5
45
330
1F
100
AcDbEntity
  8
_DEFAULT_CAD_LAYER
 62
   254
100
AcDbTrace
 10
452.1694495131569
 20
615.7290497024726
 30
0.0
 11
452.1680164510147
 21
615.7400315382324
 31
0.0
 12
452.1694495131569
 22
615.7290497024726
 32
0.0
 13
452.0838604935694
 23
615.7290497024726
 33
0.0
  0
SOLID
  5
46
330
1F
100
AcDbEntity
  8
_DEFAULT_CAD_LAYER
 62
   254
100
AcDbTrace
 10
452.1680164510147
 20
615.7400315382324
 30
0.0
 11
451.467191863485
 21
616.0171268179708
 31
0.0
 12
451.1694495131569
 22
618.8769401600332
 32
0.0
 13
451.1694495131569
 23
616.7290497024726
 33
0.0
  0
SOLID
  5
47
330
1F
100
AcDbEntity
  8
_DEFAULT_CAD_LAYER
 62
   254
100
AcDbTrace
 10
452.1680164510147
 20
615.7400315382324
 30
0.0
 11
451.1694495131569
 21
618.8769401600332
 31
0.0
 12
452.1694495131569
 22
619.8769401600332
 32
0.0
 13
451.3011549709798
 23
619.3729891374795
 33
0.0
  0
SOLID
  5
48
330
1F
100
AcDbEntity
  8
_DEFAULT_CAD_LAYER
 62
   254
100
AcDbTrace
 10
452.1680164510147
 20
615.7400315382324
 30
0.0
 11
452.1694495131569
 21
619.8769401600332
 31
0.0
 12
452.3404783591039
 22
619.8434531041206
 32
0.0
 13
452.0838604935694
 23
619.8769401600332
 33
0.0
  0
SOLID
  5
49
330
1F
100
AcDbEntity
  8
_DEFAULT_CAD_LAYER
 62
   254
100
AcDbTrace
 10
452.1680164510147
 20
615.7400315382324
 30
0.0
 11
452.3404783591039
 21
619.8434531041206
 31
0.0
 12
453.0838604935694
 22
616.7290497024726
 32
0.0
 13
453.0838604935694
 23
618.8769401600332
 33
0.0
  0
SOLID
  5
4A
330
1F
100
AcDbEntity
  8
_DEFAULT_CAD_LAYER
 62
   254
100
AcDbTrace
 10
452.1680164510147
 20
615.7400315382324
 30
0.0
 11
453.0838604935694
 21
616.7290497024726
 31
0.0
 12
452.1680164510147
 22
615.7400315382324
 32
0.0
 13
452.3404783591039
 23
615.7625367583852
 33
0.0
  0
SOLID
  5
4B
330
1F
100
AcDbEntity
  8
_DEFAULT_CAD_LAYER
 62
   254
100
AcDbTrace
 10
451.467191863485
 20
616.0171268179708
 30
0.0
 11
452.1680164510147
 21
615.7400315382324
 31
0.0
 12
451.467191863485
 22
616.0171268179708
 32
0.0
 13
452.1694495131569
 23
615.7290497024726
 33
0.0
  0
LWPOLYLINE
  5
4C
330
1F
100
AcDbEntity
  8
_DEFAULT_CAD_LAYER
 62
     7
100
AcDbPolyline
 90
        8
 70
     1
 43
0.0
 10
451.1694495131569
 20
618.8769401600332
 42
-0.414213562373095
 10
452.1694495131569
 20
619.8769401600332
 10
452.0838604935694
 20
619.8769401600332
 42
-0.414213562373095
 10
453.0838604935694
 20
618.8769401600332
 10
453.0838604935694
 20
616.7290497024726
 42
-0.414213562373095
 10
452.0838604935694
 20
615.7290497024726
 10
452.1694495131569
 20
615.7290497024726
 42
-0.414213562373095
 10
451.1694495131569
 20
616.7290497024726
  0
ARC
  5
4D
330
1F
100
AcDbEntity
  8
_DEFAULT_CAD_LAYER
100
AcDbCircle
 10
453.8541472967966
 20
624.7451139604037
 30
0.0
 40
0.7930397099324058
100
AcDbArc
 50
270.0
 51
90.0
  0
ARC
  5
4E
330
1F
100
AcDbEntity
  8
_DEFAULT_CAD_LAYER
100
AcDbCircle
 10
450.2152267166614
 20
623.555554395505
 30
0.0
 40
0.7930397099324058
100
AcDbArc
 50
90.0
 51
270.0
  0
LINE
  5
4F
330
1F
100
AcDbEntity
  8
_DEFAULT_CAD_LAYER
100
AcDbLine
 10
453.8541472967966
 20
623.9520742504712
 30
0.0
 11
450.2152267166614
 21
624.3485941054375
 31
0.0
  0
ARC
  5
50
330
1F
100
AcDbEntity
  8
_DEFAULT_CAD_LAYER
100
AcDbCircle
 10
453.8541472967966
 20
622.3659948306065
 30
0.0
 40
0.7930397099324058
100
AcDbArc
 50
270.0
 51
90.0
  0
LINE
  5
51
330
1F
100
AcDbEntity
  8
_DEFAULT_CAD_LAYER
100
AcDbLine
 10
450.2152267166614
 20
622.7625146855727
 30
0.0
 11
453.8541472967966
 21
623.1590345405389
 31
0.0
  0
ARC
  5
52
330
1F
100
AcDbEntity
  8
_DEFAULT_CAD_LAYER
100
AcDbCircle
 10
450.2152267166614
 20
621.1764352657078
 30
0.0
 40
0.7930397099324058
100
AcDbArc
 50
90.0
 51
270.0
  0
LINE
  5
53
330
1F
100
AcDbEntity
  8
_DEFAULT_CAD_LAYER
100
AcDbLine
 10
453.8541472967966
 20
621.5729551206741
 30
0.0
 11
450.2152267166614
 21
621.9694749756403
 31
0.0
  0
ARC
  5
54
330
1F
100
AcDbEntity
  8
_DEFAULT_CAD_LAYER
100
AcDbCircle
 10
453.8541472967966
 20
619.9868757008093
 30
0.0
 40
0.7930397099324058
100
AcDbArc
 50
270.0
 51
90.0
  0
LINE
  5
55
330
1F
100
AcDbEntity
  8
_DEFAULT_CAD_LAYER
100
AcDbLine
 10
450.2152267166614
 20
620.3833955557755
 30
0.0
 11
453.8541472967966
 21
620.7799154107416
 31
0.0
  0
ARC
  5
56
330
1F
100
AcDbEntity
  8
_DEFAULT_CAD_LAYER
100
AcDbCircle
 10
450.2152267166614
 20
618.7973161359107
 30
0.0
 40
0.7930397099324058
100
AcDbArc
 50
90.0
 51
270.0
  0
LINE
  5
57
330
1F
100
AcDbEntity
  8
_DEFAULT_CAD_LAYER
100
AcDbLine
 10
453.8541472967966
 20
619.1938359908769
 30
0.0
 11
450.2152267166614
 21
619.5903558458431
 31
0.0
  0
ARC
  5
58
330
1F
100
AcDbEntity
  8
_DEFAULT_CAD_LAYER
100
AcDbCircle
 10
453.8541472967966
 20
617.607756571012
 30
0.0
 40
0.7930397099324058
100
AcDbArc
 50
270.0
 51
90.0
  0
LINE
  5
59
330
1F
100
AcDbEntity
  8
_DEFAULT_CAD_LAYER
100
AcDbLine
 10
450.2152267166614
 20
618.0042764259782
 30
0.0
 11
453.8541472967966
 21
618.4007962809444
 31
0.0
  0
ARC
  5
5A
330
1F
100
AcDbEntity
  8
_DEFAULT_CAD_LAYER
100
AcDbCircle
 10
450.2152267166614
 20
616.4181970061135
 30
0.0
 40
0.7930397099324058
100
AcDbArc
 50
90.0
 51
270.0
  0
LINE
  5
5B
330
1F
100
AcDbEntity
  8
_DEFAULT_CAD_LAYER
100
AcDbLine
 10
453.8541472967966
 20
616.8147168610797
 30
0.0
 11
450.2152267166614
 21
617.2112367160458
 31
0.0
  0
ARC
  5
5C
330
1F
100
AcDbEntity
  8
_DEFAULT_CAD_LAYER
100
AcDbCircle
 10
453.8541472967966
 20
615.2286374412148
 30
0.0
 40
0.7930397099324058
100
AcDbArc
 50
270.0
 51
90.0
  0
LINE
  5
5D
330
1F
100
AcDbEntity
  8
_DEFAULT_CAD_LAYER
100
AcDbLine
 10
450.2152267166614
 20
615.625157296181
 30
0.0
 11
453.8541472967966
 21
616.0216771511473
 31
0.0
  0
ARC
  5
5E
330
1F
100
AcDbEntity
  8
_DEFAULT_CAD_LAYER
100
AcDbCircle
 10
450.2152267166614
 20
614.0390778763162
 30
0.0
 40
0.7930397099324058
100
AcDbArc
 50
90.0
 51
270.0
  0
LINE
  5
5F
330
1F
100
AcDbEntity
  8
_DEFAULT_CAD_LAYER
100
AcDbLine
 10
453.8541472967966
 20
614.4355977312824
 30
0.0
 11
450.2152267166614
 21
614.8321175862486
 31
0.0
  0
ARC
  5
60
330
1F
100
AcDbEntity
  8
_DEFAULT_CAD_LAYER
100
AcDbCircle
 10
453.8541472967966
 20
612.8495183114176
 30
0.0
 40
0.7930397099324058
100
AcDbArc
 50
270.0
 51
90.0
  0
LINE
  5
61
330
1F
100
AcDbEntity
  8
_DEFAULT_CAD_LAYER
100
AcDbLine
 10
450.2152267166614
 20
613.2460381663838
 30
0.0
 11
453.8541472967966
 21
613.64255802135
 31
0.0
  0
ARC
  5
62
330
1F
100
AcDbEntity
  8
_DEFAULT_CAD_LAYER
100
AcDbCircle
 10
450.2152267166614
 20
611.659958746519
 30
0.0
 40
0.7930397099324058
100
AcDbArc
 50
90.0
 51
270.0
  0
LINE
  5
63
330
1F
100
AcDbEntity
  8
_DEFAULT_CAD_LAYER
100
AcDbLine
 10
453.8541472967966
 20
612.0564786014852
 30
0.0
 11
450.2152267166614
 21
612.4529984564514
 31
0.0
  0
ARC
  5
64
330
1F
100
AcDbEntity
  8
_DEFAULT_CAD_LAYER
100
AcDbCircle
 10
453.8541472967966
 20
610.4703991816203
 30
0.0
 40
0.7930397099324058
100
AcDbArc
 50
270.0
 51
90.0
  0
LINE
  5
65
330
1F
100
AcDbEntity
  8
_DEFAULT_CAD_LAYER
100
AcDbLine
 10
450.2152267166614
 20
610.8669190365866
 30
0.0
 11
453.8541472967966
 21
611.2634388915528
 31
0.0
  0
ARC
  5
66
330
1F
100
AcDbEntity
  8
_DEFAULT_CAD_LAYER
100
AcDbCircle
 10
450.2152267166614
 20
609.2808396167218
 30
0.0
 40
0.7930397099324058
100
AcDbArc
 50
90.0
 51
270.0
  0
LINE
  5
67
330
1F
100
AcDbEntity
  8
_DEFAULT_CAD_LAYER
100
AcDbLine
 10
453.8541472967966
 20
609.677359471688
 30
0.0
 11
450.2152267166614
 21
610.0738793266542
 31
0.0
  0
ARC
  5
68
330
1F
100
AcDbEntity
  8
_DEFAULT_CAD_LAYER
100
AcDbCircle
 10
453.8541472967966
 20
608.0912800518232
 30
0.0
 40
0.7930397099324058
100
AcDbArc
 50
270.0
 51
90.0
  0
LINE
  5
69
330
1F
100
AcDbEntity
  8
_DEFAULT_CAD_LAYER
100
AcDbLine
 10
450.2152267166614
 20
608.4877999067894
 30
0.0
 11
453.8541472967966
 21
608.8843197617556
 31
0.0
  0
ARC
  5
6A
330
1F
100
AcDbEntity
  8
_DEFAULT_CAD_LAYER
100
AcDbCircle
 10
450.2152267166614
 20
606.9017204869245
 30
0.0
 40
0.7930397099324058
100
AcDbArc
 50
90.0
 51
270.0
  0
LINE
  5
6B
330
1F
100
AcDbEntity
  8
_DEFAULT_CAD_LAYER
100
AcDbLine
 10
453.8541472967966
 20
607.2982403418907
 30
0.0
 11
450.2152267166614
 21
607.6947601968569
 31
0.0
  0
ARC
  5
6C
330
1F
100
AcDbEntity
  8
_DEFAULT_CAD_LAYER
100
AcDbCircle
 10
453.8541472967966
 20
605.712160922026
 30
0.0
 40
0.7930397099324058
100
AcDbArc
 50
270.0
 51
90.0
  0
LINE
  5
6D
330
1F
100
AcDbEntity
  8
_DEFAULT_CAD_LAYER
100
AcDbLine
 10
450.2152267166614
 20
606.1086807769922
 30
0.0
 11
453.8541472967966
 21
606.5052006319584
 31
0.0
  0
ARC
  5
6E
330
1F
100
AcDbEntity
  8
_DEFAULT_CAD_LAYER
100
AcDbCircle
 10
450.2152267166614
 20
604.5226013571273
 30
0.0
 40
0.7930397099324058
100
AcDbArc
 50
90.0
 51
270.0
  0
LINE
  5
6F
330
1F
100
AcDbEntity
  8
_DEFAULT_CAD_LAYER
100
AcDbLine
 10
453.8541472967966
 20
604.9191212120935
 30
0.0
 11
450.2152267166614
 21
605.3156410670598
 31
0.0
  0
ARC
  5
70
330
1F
100
AcDbEntity
  8
_DEFAULT_CAD_LAYER
100
AcDbCircle
 10
453.8541472967966
 20
603.3330417922288
 30
0.0
 40
0.7930397099324058
100
AcDbArc
 50
270.0
 51
90.0
  0
LINE
  5
71
330
1F
100
AcDbEntity
  8
_DEFAULT_CAD_LAYER
100
AcDbLine
 10
450.2152267166614
 20
603.7295616471949
 30
0.0
 11
453.8541472967966
 21
604.1260815021611
 31
0.0
  0
ARC
  5
72
330
1F
100
AcDbEntity
  8
_DEFAULT_CAD_LAYER
100
AcDbCircle
 10
450.2152267166614
 20
602.1434822273301
 30
0.0
 40
0.7930397099324058
100
AcDbArc
 50
90.0
 51
270.0
  0
LINE
  5
73
330
1F
100
AcDbEntity
  8
_DEFAULT_CAD_LAYER
100
AcDbLine
 10
453.8541472967966
 20
602.5400020822964
 30
0.0
 11
450.2152267166614
 21
602.9365219372626
 31
0.0
  0
ARC
  5
74
330
1F
100
AcDbEntity
  8
_DEFAULT_CAD_LAYER
100
AcDbCircle
 10
453.8541472967966
 20
600.9539226624315
 30
0.0
 40
0.7930397099324058
100
AcDbArc
 50
270.0
 51
90.0
  0
LINE
  5
75
330
1F
100
AcDbEntity
  8
_DEFAULT_CAD_LAYER
100
AcDbLine
 10
450.2152267166614
 20
601.3504425173977
 30
0.0
 11
453.8541472967966
 21
601.7469623723639
 31
0.0
  0
ARC
  5
76
330
1F
100
AcDbEntity
  8
_DEFAULT_CAD_LAYER
100
AcDbCircle
 10
450.2152267166614
 20
599.764363097533
 30
0.0
 40
0.7930397099324058
100
AcDbArc
 50
90.0
 51
270.0
  0
LINE
  5
77
330
1F
100
AcDbEntity
  8
_DEFAULT_CAD_LAYER
100
AcDbLine
 10
453.8541472967966
 20
600.1608829524992
 30
0.0
 11
450.2152267166614
 21
600.5574028074653
 31
0.0
  0
ARC
  5
78
330
1F
100
AcDbEntity
  8
_DEFAULT_CAD_LAYER
100
AcDbCircle
 10
453.8541472967966
 20
598.5748035326343
 30
0.0
 40
0.7930397099324058
100
AcDbArc
 50
270.0
 51
90.0
  0
LINE
  5
79
330
1F
100
AcDbEntity
  8
_DEFAULT_CAD_LAYER
100
AcDbLine
 10
450.2152267166614
 20
598.9713233876005
 30
0.0
 11
453.8541472967966
 21
599.3678432425667
 31
0.0
  0
ARC
  5
7A
330
1F
100
AcDbEntity
  8
_DEFAULT_CAD_LAYER
100
AcDbCircle
 10
450.2152267166614
 20
597.3852439677357
 30
0.0
 40
0.7930397099324058
100
AcDbArc
 50
90.0
 51
270.0
  0
LINE
  5
7B
330
1F
100
AcDbEntity
  8
_DEFAULT_CAD_LAYER
100
AcDbLine
 10
453.8541472967966
 20
597.7817638227019
 30
0.0
 11
450.2152267166614
 21
598.1782836776681
 31
0.0
  0
ARC
  5
7C
330
1F
100
AcDbEntity
  8
_DEFAULT_CAD_LAYER
100
AcDbCircle
 10
453.8541472967966
 20
596.1956844028371
 30
0.0
 40
0.7930397099324058
100
AcDbArc
 50
270.0
 51
90.0
  0
LINE
  5
7D
330
1F
100
AcDbEntity
  8
_DEFAULT_CAD_LAYER
100
AcDbLine
 10
450.2152267166614
 20
596.5922042578032
 30
0.0
 11
453.8541472967966
 21
596.9887241127694
 31
0.0
  0
ARC
  5
7E
330
1F
100
AcDbEntity
  8
_DEFAULT_CAD_LAYER
100
AcDbCircle
 10
450.2152267166614
 20
595.0061248379385
 30
0.0
 40
0.7930397099324058
100
AcDbArc
 50
90.0
 51
270.0
  0
LINE
  5
7F
330
1F
100
AcDbEntity
  8
_DEFAULT_CAD_LAYER
100
AcDbLine
 10
453.8541472967966
 20
595.4026446929047
 30
0.0
 11
450.2152267166614
 21
595.7991645478709
 31
0.0
  0
ARC
  5
80
330
1F
100
AcDbEntity
  8
_DEFAULT_CAD_LAYER
100
AcDbCircle
 10
453.8541472967966
 20
593.8165652730398
 30
0.0
 40
0.7930397099324058
100
AcDbArc
 50
270.0
 51
90.0
  0
LINE
  5
81
330
1F
100
AcDbEntity
  8
_DEFAULT_CAD_LAYER
100
AcDbLine
 10
450.2152267166614
 20
594.213085128006
 30
0.0
 11
453.8541472967966
 21
594.6096049829723
 31
0.0
  0
ARC
  5
82
330
1F
100
AcDbEntity
  8
_DEFAULT_CAD_LAYER
100
AcDbCircle
 10
450.2152267166614
 20
592.6270057081413
 30
0.0
 40
0.7930397099324058
100
AcDbArc
 50
90.0
 51
270.0
  0
LINE
  5
83
330
1F
100
AcDbEntity
  8
_DEFAULT_CAD_LAYER
100
AcDbLine
 10
453.8541472967966
 20
593.0235255631075
 30
0.0
 11
450.2152267166614
 21
593.4200454180736
 31
0.0
  0
ARC
  5
84
330
1F
100
AcDbEntity
  8
_DEFAULT_CAD_LAYER
100
AcDbCircle
 10
453.8541472967966
 20
591.4374461432426
 30
0.0
 40
0.7930397099324058
100
AcDbArc
 50
270.0
 51
90.0
  0
LINE
  5
85
330
1F
100
AcDbEntity
  8
_DEFAULT_CAD_LAYER
100
AcDbLine
 10
450.2152267166614
 20
591.8339659982089
 30
0.0
 11
453.8541472967966
 21
592.2304858531751
 31
0.0
  0
ARC
  5
86
330
1F
100
AcDbEntity
  8
_DEFAULT_CAD_LAYER
100
AcDbCircle
 10
450.2152267166614
 20
590.247886578344
 30
0.0
 40
0.7930397099324058
100
AcDbArc
 50
90.0
 51
270.0
  0
LINE
  5
87
330
1F
100
AcDbEntity
  8
_DEFAULT_CAD_LAYER
100
AcDbLine
 10
453.8541472967966
 20
590.6444064333102
 30
0.0
 11
450.2152267166614
 21
591.0409262882764
 31
0.0
  0
ARC
  5
88
330
1F
100
AcDbEntity
  8
_DEFAULT_CAD_LAYER
100
AcDbCircle
 10
453.8541472967966
 20
589.0583270134455
 30
0.0
 40
0.7930397099324058
100
AcDbArc
 50
270.0
 51
90.0
  0
LINE
  5
89
330
1F
100
AcDbEntity
  8
_DEFAULT_CAD_LAYER
100
AcDbLine
 10
450.2152267166614
 20
589.4548468684117
 30
0.0
 11
453.8541472967966
 21
589.8513667233779
 31
0.0
  0
ARC
  5
8A
330
1F
100
AcDbEntity
  8
_DEFAULT_CAD_LAYER
100
AcDbCircle
 10
450.2152267166614
 20
587.8687674485468
 30
0.0
 40
0.7930397099324058
100
AcDbArc
 50
90.0
 51
270.0
  0
LINE
  5
8B
330
1F
100
AcDbEntity
  8
_DEFAULT_CAD_LAYER
100
AcDbLine
 10
453.8541472967966
 20
588.265287303513
 30
0.0
 11
450.2152267166614
 21
588.6618071584792
 31
0.0
  0
ARC
  5
8C
330
1F
100
AcDbEntity
  8
_DEFAULT_CAD_LAYER
100
AcDbCircle
 10
453.8541472967966
 20
586.6792078836482
 30
0.0
 40
0.7930397099324058
100
AcDbArc
 50
270.0
 51
90.0
  0
LINE
  5
8D
330
1F
100
AcDbEntity
  8
_DEFAULT_CAD_LAYER
100
AcDbLine
 10
450.2152267166614
 20
587.0757277386144
 30
0.0
 11
453.8541472967966
 21
587.4722475935806
 31
0.0
  0
ARC
  5
8E
330
1F
100
AcDbEntity
  8
_DEFAULT_CAD_LAYER
100
AcDbCircle
 10
450.2152267166614
 20
585.4896483187496
 30
0.0
 40
0.7930397099324058
100
AcDbArc
 50
90.0
 51
270.0
  0
LINE
  5
8F
330
1F
100
AcDbEntity
  8
_DEFAULT_CAD_LAYER
100
AcDbLine
 10
453.8541472967966
 20
585.8861681737158
 30
0.0
 11
450.2152267166614
 21
586.2826880286821
 31
0.0
  0
ARC
  5
90
330
1F
100
AcDbEntity
  8
_DEFAULT_CAD_LAYER
100
AcDbCircle
 10
453.8541472967966
 20
584.300088753851
 30
0.0
 40
0.7930397099324058
100
AcDbArc
 50
270.0
 51
90.0
  0
LINE
  5
91
330
1F
100
AcDbEntity
  8
_DEFAULT_CAD_LAYER
100
AcDbLine
 10
450.2152267166614
 20
584.6966086088172
 30
0.0
 11
453.8541472967966
 21
585.0931284637834
 31
0.0
  0
ARC
  5
92
330
1F
100
AcDbEntity
  8
_DEFAULT_CAD_LAYER
100
AcDbCircle
 10
450.2152267166614
 20
583.1105291889523
 30
0.0
 40
0.7930397099324058
100
AcDbArc
 50
90.0
 51
270.0
  0
LINE
  5
93
330
1F
100
AcDbEntity
  8
_DEFAULT_CAD_LAYER
100
AcDbLine
 10
453.8541472967966
 20
583.5070490439186
 30
0.0
 11
450.2152267166614
 21
583.9035688988848
 31
0.0
  0
ARC
  5
94
330
1F
100
AcDbEntity
  8
_DEFAULT_CAD_LAYER
100
AcDbCircle
 10
453.8541472967966
 20
581.9209696240538
 30
0.0
 40
0.7930397099324058
100
AcDbArc
 50
270.0
 51
90.0
  0
LINE
  5
95
330
1F
100
AcDbEntity
  8
_DEFAULT_CAD_LAYER
100
AcDbLine
 10
450.2152267166614
 20
582.31748947902
 30
0.0
 11
453.8541472967966
 21
582.7140093339862
 31
0.0
  0
ARC
  5
96
330
1F
100
AcDbEntity
  8
_DEFAULT_CAD_LAYER
100
AcDbCircle
 10
450.2152267166614
 20
580.7314100591552
 30
0.0
 40
0.7930397099324058
100
AcDbArc
 50
90.0
 51
270.0
  0
LINE
  5
97
330
1F
100
AcDbEntity
  8
_DEFAULT_CAD_LAYER
100
AcDbLine
 10
453.8541472967966
 20
581.1279299141214
 30
0.0
 11
450.2152267166614
 21
581.5244497690876
 31
0.0
  0
ARC
  5
98
330
1F
100
AcDbEntity
  8
_DEFAULT_CAD_LAYER
100
AcDbCircle
 10
453.8541472967966
 20
579.5418504942566
 30
0.0
 40
0.7930397099324058
100
AcDbArc
 50
270.0
 51
90.0
  0
LINE
  5
99
330
1F
100
AcDbEntity
  8
_DEFAULT_CAD_LAYER
100
AcDbLine
 10
450.2152267166614
 20
579.9383703492227
 30
0.0
 11
453.8541472967966
 21
580.3348902041889
 31
0.0
  0
ARC
  5
9A
330
1F
100
AcDbEntity
  8
_DEFAULT_CAD_LAYER
100
AcDbCircle
 10
450.2152267166614
 20
578.352290929358
 30
0.0
 40
0.7930397099324058
100
AcDbArc
 50
90.0
 51
270.0
  0
LINE
  5
9B
330
1F
100
AcDbEntity
  8
_DEFAULT_CAD_LAYER
100
AcDbLine
 10
453.8541472967966
 20
578.7488107843242
 30
0.0
 11
450.2152267166614
 21
579.1453306392904
 31
0.0
  0
LINE
  5
9C
330
1F
100
AcDbEntity
  8
_DEFAULT_CAD_LAYER
100
AcDbLine
 10
454.784687006729
 20
625.8252866506248
 30
0.0
 11
454.784687006729
 21
577.4217512194256
 31
0.0
  0
LINE
  5
9D
330
1F
100
AcDbEntity
  8
_DEFAULT_CAD_LAYER
100
AcDbLine
 10
454.784687006729
 20
577.4217512194256
 30
0.0
 11
449.284687006729
 21
577.4217512194256
 31
0.0
  0
LINE
  5
9E
330
1F
100
AcDbEntity
  8
_DEFAULT_CAD_LAYER
100
AcDbLine
 10
449.284687006729
 20
577.4217512194256
 30
0.0
 11
449.284687006729
 21
625.8252866506248
 31
0.0
  0
LINE
  5
9F
330
1F
100
AcDbEntity
  8
_DEFAULT_CAD_LAYER
100
AcDbLine
 10
449.284687006729
 20
625.8252866506248
 30
0.0
 11
454.784687006729
 21
625.8252866506248
 31
0.0
  0
SOLID
  5
A0
330
1F
100
AcDbEntity
  8
_DEFAULT_CAD_LAYER
 62
     7
100
AcDbTrace
 10
454.784687006729
 20
623.2889033488003
 30
0.0
 11
455.256494501344
 21
623.2889033488003
 31
0.0
 12
454.784687006729
 22
577.5444726429656
 32
0.0
 13
455.256494501344
 23
577.5444726429656
 33
0.0
  0
LWPOLYLINE
  5
A1
330
1F
100
AcDbEntity
  8
_DEFAULT_CAD_LAYER
 62
   136
100
AcDbPolyline
 90
        4
 70
     1
 43
0.0
 10
455.256494501344
 20
623.2889033488003
 10
455.256494501344
 20
577.5444726429656
 10
454.784687006729
 20
577.5444726429656
 10
454.784687006729
 20
623.2889033488003
  0
SOLID
  5
A2
330
1F
100
AcDbEntity
  8
_DEFAULT_CAD_LAYER
 62
    33
100
AcDbTrace
 10
449.284687006729
 20
623.1499563504889
 30
0.0
 11
449.284687006729
 21
577.4217512194255
 31
0.0
 12
448.784687006729
 22
623.1499563504889
 32
0.0
 13
448.784687006729
 23
577.4217512194255
 33
0.0
  0
LINE
  5
A3
330
1F
100
AcDbEntity
  8
_DEFAULT_CAD_LAYER
 62
     7
100
AcDbLine
 10
449.284687006729
 20
623.1499563504889
 30
0.0
 11
449.284687006729
 21
577.4217512194255
 31
0.0
  0
LINE
  5
A4
330
1F
100
AcDbEntity
  8
_DEFAULT_CAD_LAYER
 62
     7
100
AcDbLine
 10
449.284687006729
 20
577.4217512194255
 30
0.0
 11
448.784687006729
 21
577.4217512194255
 31
0.0
  0
LINE
  5
A5
330
1F
100
AcDbEntity
  8
_DEFAULT_CAD_LAYER
 62
     7
100
AcDbLine
 10
448.784687006729
 20
577.4217512194255
 30
0.0
 11
448.784687006729
 21
623.1499563504889
 31
0.0
  0
LINE
  5
A6
330
1F
100
AcDbEntity
  8
_DEFAULT_CAD_LAYER
 62
     7
100
AcDbLine
 10
448.784687006729
 20
623.1499563504889
 30
0.0
 11
449.284687006729
 21
623.1499563504889
 31
0.0
  0
INSERT
  5
11D
330
1F
100
AcDbEntity
  8
_DEFAULT_CAD_LAYER
  6
Continuous
370
     0
100
AcDbBlockReference
  2
block35
 10
447.8581709762324
 20
577.1240083766363
 30
0.0
1001
CHIEFARC-LNWT
1070
     0
  0
INSERT
  5
11E
330
1F
100
AcDbEntity
  8
_DEFAULT_CAD_LAYER
100
AcDbBlockReference
  2
block35
 10
447.8581709762324
 20
601.1240083766363
 30
0.0
  0
INSERT
  5
189
330
1F
100
AcDbEntity
  8
_DEFAULT_CAD_LAYER
  6
Continuous
370
     0
100
AcDbBlockReference
  2
5__Bevel
 10
446.4194058861185
 20
577.5226459913683
 30
0.0
1001
CHIEFARC-LNWT
1070
     0
  0
INSERT
  5
18A
330
1F
100
AcDbEntity
  8
_DEFAULT_CAD_LAYER
100
AcDbBlockReference
  2
5__Bevel
 10
446.4194058861186
 20
591.9118446590995
 30
0.0
  0
INSERT
  5
18B
330
1F
100
AcDbEntity
  8
_DEFAULT_CAD_LAYER
100
AcDbBlockReference
  2
5__Bevel
 10
446.4194058861186
 20
606.720016541958
 30
0.0
  0
LINE
  5
18C
330
1F
100
AcDbEntity
  8
_DEFAULT_CAD_LAYER
 62
   254
370
     0
100
AcDbLine
 10
446.471080698647
 20
621.1264556517242
 30
0.0
 11
446.5699989333219
 21
621.2253738863988
 31
0.0
  0
LINE
  5
18D
330
1F
100
AcDbEntity
  8
_DEFAULT_CAD_LAYER
 62
   254
370
     0
100
AcDbLine
 10
446.3014390168716
 20
621.1335906652454
 30
0.0
 11
446.5808261096061
 21
621.4129777579797
 31
0.0
  0
LINE
  5
18E
330
1F
100
AcDbEntity
  8
_DEFAULT_CAD_LAYER
 62
   254
370
     0
100
AcDbLine
 10
446.1317973350961
 20
621.1407256787666
 30
0.0
 11
446.5916532858903
 21
621.6005816295605
 31
0.0
  0
LINE
  5
18F
330
1F
100
AcDbEntity
  8
_DEFAULT_CAD_LAYER
 62
   254
370
     0
100
AcDbLine
 10
446.1141032071431
 20
621.29980824611
 30
0.0
 11
446.6024804621746
 21
621.7881855011414
 31
0.0
  0
LINE
  5
190
330
1F
100
AcDbEntity
  8
_DEFAULT_CAD_LAYER
 62
   254
370
     0
100
AcDbLine
 10
446.1417493381912
 20
621.504231072455
 30
0.0
 11
446.6133076384588
 21
621.9757893727221
 31
0.0
  0
LINE
  5
191
330
1F
100
AcDbEntity
  8
_DEFAULT_CAD_LAYER
 62
   254
370
     0
100
AcDbLine
 10
446.1693954692392
 20
621.7086538987999
 30
0.0
 11
446.6241348147431
 21
622.1633932443041
 31
0.0
  0
LINE
  5
192
330
1F
100
AcDbEntity
  8
_DEFAULT_CAD_LAYER
 62
   254
370
     0
100
AcDbLine
 10
446.1970416002872
 20
621.913076725144
 30
0.0
 11
446.6349619910273
 21
622.350997115884
 31
0.0
  0
LINE
  5
193
330
1F
100
AcDbEntity
  8
_DEFAULT_CAD_LAYER
 62
   254
370
     0
100
AcDbLine
 10
446.2246877313353
 20
622.1174995514889
 30
0.0
 11
446.6457891673115
 21
622.5386009874647
 31
0.0
  0
LINE
  5
194
330
1F
100
AcDbEntity
  8
_DEFAULT_CAD_LAYER
 62
   254
370
     0
100
AcDbLine
 10
446.2523338623833
 20
622.3219223778334
 30
0.0
 11
446.6566163435958
 21
622.7262048590457
 31
0.0
  0
LINE
  5
195
330
1F
100
AcDbEntity
  8
_DEFAULT_CAD_LAYER
 62
   254
370
     0
100
AcDbLine
 10
446.2799799934314
 20
622.5263452041784
 30
0.0
 11
446.66744351988
 21
622.9138087306266
 31
0.0
  0
LINE
  5
196
330
1F
100
AcDbEntity
  8
_DEFAULT_CAD_LAYER
 62
   254
370
     0
100
AcDbLine
 10
446.3076261244794
 20
622.7307680305229
 30
0.0
 11
446.6782706961643
 21
623.1014126022084
 31
0.0
  0
LINE
  5
197
330
1F
100
AcDbEntity
  8
_DEFAULT_CAD_LAYER
 62
   254
370
     0
100
AcDbLine
 10
446.3352722555275
 20
622.9351908568677
 30
0.0
 11
446.6890978724485
 21
623.2890164737893
 31
0.0
  0
LINE
  5
198
330
1F
100
AcDbEntity
  8
_DEFAULT_CAD_LAYER
 62
   254
370
     0
100
AcDbLine
 10
446.3629183865755
 20
623.1396136832122
 30
0.0
 11
446.6999250487328
 21
623.4766203453701
 31
0.0
  0
LINE
  5
199
330
1F
100
AcDbEntity
  8
_DEFAULT_CAD_LAYER
 62
   254
370
     0
100
AcDbLine
 10
446.3905645176235
 20
623.3440365095572
 30
0.0
 11
446.710752225017
 21
623.664224216951
 31
0.0
  0
LINE
  5
19A
330
1F
100
AcDbEntity
  8
_DEFAULT_CAD_LAYER
 62
   254
370
     0
100
AcDbLine
 10
446.4182106486716
 20
623.5484593359017
 30
0.0
 11
446.7215794013012
 21
623.8518280885309
 31
0.0
  0
LINE
  5
19B
330
1F
100
AcDbEntity
  8
_DEFAULT_CAD_LAYER
 62
   254
370
     0
100
AcDbLine
 10
446.4458567797196
 20
623.7528821622462
 30
0.0
 11
446.7324065775855
 21
624.0394319601127
 31
0.0
  0
LINE
  5
19C
330
1F
100
AcDbEntity
  8
_DEFAULT_CAD_LAYER
 62
   254
370
     0
100
AcDbLine
 10
446.4735029107676
 20
623.9573049885912
 30
0.0
 11
446.7432337538697
 21
624.2270358316936
 31
0.0
  0
LINE
  5
19D
330
1F
100
AcDbEntity
  8
_DEFAULT_CAD_LAYER
 62
   254
370
     0
100
AcDbLine
 10
446.5011490418157
 20
624.1617278149357
 30
0.0
 11
446.754060930154
 21
624.4146397032744
 31
0.0
  0
LINE
  5
19E
330
1F
100
AcDbEntity
  8
_DEFAULT_CAD_LAYER
 62
   254
370
     0
100
AcDbLine
 10
446.5287951728637
 20
624.3661506412806
 30
0.0
 11
446.7648881064382
 21
624.6022435748553
 31
0.0
  0
LINE
  5
19F
330
1F
100
AcDbEntity
  8
_DEFAULT_CAD_LAYER
 62
   254
370
     0
100
AcDbLine
 10
446.5564413039118
 20
624.5705734676251
 30
0.0
 11
446.7757152827224
 21
624.7898474464362
 31
0.0
  0
LINE
  5
1A0
330
1F
100
AcDbEntity
  8
_DEFAULT_CAD_LAYER
 62
   254
370
     0
100
AcDbLine
 10
446.5840874349598
 20
624.77499629397
 30
0.0
 11
446.7865424590067
 21
624.977451318017
 31
0.0
  0
LINE
  5
1A1
330
1F
100
AcDbEntity
  8
_DEFAULT_CAD_LAYER
 62
   254
370
     0
100
AcDbLine
 10
446.6117335660078
 20
624.9794191203146
 30
0.0
 11
446.7973696352909
 21
625.1650551895979
 31
0.0
  0
LINE
  5
1A2
330
1F
100
AcDbEntity
  8
_DEFAULT_CAD_LAYER
 62
   254
370
     0
100
AcDbLine
 10
446.6393796970559
 20
625.1838419466591
 30
0.0
 11
446.8081968115752
 21
625.3526590611788
 31
0.0
  0
LINE
  5
1A3
330
1F
100
AcDbEntity
  8
_DEFAULT_CAD_LAYER
 62
   254
370
     0
100
AcDbLine
 10
446.6670258281039
 20
625.3882647730039
 30
0.0
 11
446.8190239878594
 21
625.5402629327596
 31
0.0
  0
LINE
  5
1A4
330
1F
100
AcDbEntity
  8
_DEFAULT_CAD_LAYER
 62
   254
370
     0
100
AcDbLine
 10
446.6946719591519
 20
625.5926875993484
 30
0.0
 11
446.7218704269014
 21
625.6198860670979
 31
0.0
  0
LWPOLYLINE
  5
1A5
330
1F
100
AcDbEntity
  8
_DEFAULT_CAD_LAYER
 62
    35
370
    18
100
AcDbPolyline
 90
        4
 70
     1
 43
0.0
 10
446.8233728914377
 20
625.6156169426156
 10
446.5640643628035
 20
621.1225448221801
 10
446.0928106502168
 20
621.1423654321624
 10
446.698483306609
 20
625.6208697134387
  0
LINE
  5
1A6
330
1F
100
AcDbEntity
  8
_DEFAULT_CAD_LAYER
 62
     5
370
     9
100
AcDbLine
 10
448.7872140066423
 20
624.2174874337421
 30
0.0
 11
448.7872140066423
 21
576.0583175237838
 31
0.0
1001
CHIEFARC-LNWT
1070
     8
  0
LINE
  5
1AA
330
1F
100
AcDbEntity
  8
Text
100
AcDbLine
 10
448.5872371214228
 20
594.8639183769188
 30
0.0
 11
449.3282625252073
 21
595.580424727865
 31
0.0
  0
LINE
  5
1AB
330
1F
100
AcDbEntity
  8
Text
100
AcDbLine
 10
448.5872371214228
 20
594.8639183769188
 30
0.0
 11
449.5782625252073
 21
595.1474120259727
 31
0.0
  0
LWPOLYLINE
  5
1AC
330
1F
100
AcDbEntity
  8
Text
100
AcDbPolyline
 90
        3
 70
     0
 43
0.0
 10
470.4076191279549
 20
605.0990807972223
 10
466.3150584571086
 20
605.0990807972224
 10
448.5872371214228
 20
594.8639183769188
  0
LINE
  5
1AD
330
1F
100
AcDbEntity
  8
Text
100
AcDbLine
 10
449.0065767323142
 20
603.1060242141488
 30
0.0
 11
449.7476021360986
 21
603.8225305650949
 31
0.0
  0
LINE
  5
1AE
330
1F
100
AcDbEntity
  8
Text
100
AcDbLine
 10
449.0065767323142
 20
603.1060242141488
 30
0.0
 11
449.9976021360986
 21
603.3895178632026
 31
0.0
  0
LWPOLYLINE
  5
1AF
330
1F
100
AcDbEntity
  8
Text
100
AcDbPolyline
 90
        3
 70
     0
 43
0.0
 10
470.4076191279549
 20
613.0990807972223
 10
466.3150584571086
 20
613.0990807972224
 10
449.0065767323142
 20
603.1060242141488
  0
LINE
  5
1B0
330
1F
100
AcDbEntity
  8
Text
100
AcDbLine
 10
453.6799229569939
 20
609.8041819149839
 30
0.0
 11
454.4209483607784
 21
610.5206882659301
 31
0.0
  0
LINE
  5
1B1
330
1F
100
AcDbEntity
  8
Text
100
AcDbLine
 10
453.6799229569939
 20
609.8041819149839
 30
0.0
 11
454.6709483607784
 21
610.0876755640378
 31
0.0
  0
LWPOLYLINE
  5
1B2
330
1F
100
AcDbEntity
  8
Text
100
AcDbPolyline
 90
        3
 70
     0
 43
0.0
 10
470.4076191279549
 20
617.0990807972223
 10
466.3150584571086
 20
617.0990807972224
 10
453.6799229569939
 20
609.8041819149839
  0
LINE
  5
1B3
330
1F
100
AcDbEntity
  8
Text
100
AcDbLine
 10
455.1499734743982
 20
614.6529159769296
 30
0.0
 11
455.8909988781826
 21
615.3694223278758
 31
0.0
  0
LINE
  5
1B4
330
1F
100
AcDbEntity
  8
Text
100
AcDbLine
 10
455.1499734743982
 20
614.6529159769296
 30
0.0
 11
456.1409988781826
 21
614.9364096259835
 31
0.0
  0
LWPOLYLINE
  5
1B5
330
1F
100
AcDbEntity
  8
Text
100
AcDbPolyline
 90
        3
 70
     0
 43
0.0
 10
470.4076191279549
 20
621.0990807972223
 10
466.3150584571086
 20
621.0990807972224
 10
455.1499734743982
 20
614.6529159769296
  0
LINE
  5
1B6
330
1F
100
AcDbEntity
  8
Text
100
AcDbLine
 10
447.9325296471982
 20
590.4859228404347
 30
0.0
 11
448.6735550509826
 21
591.2024291913808
 31
0.0
  0
LINE
  5
1B7
330
1F
100
AcDbEntity
  8
Text
100
AcDbLine
 10
447.9325296471982
 20
590.4859228404347
 30
0.0
 11
448.9235550509826
 21
590.7694164894885
 31
0.0
  0
LWPOLYLINE
  5
1B8
330
1F
100
AcDbEntity
  8
Text
100
AcDbPolyline
 90
        3
 70
     0
 43
0.0
 10
470.4076191279549
 20
601.0990807972223
 10
466.3150584571086
 20
601.0990807972224
 10
447.9325296471982
 20
590.4859228404347
  0
LINE
  5
1B9
330
1F
100
AcDbEntity
  8
Text
100
AcDbLine
 10
446.3878753543888
 20
585.5941162686763
 30
0.0
 11
447.1289007581732
 21
586.3106226196224
 31
0.0
  0
LINE
  5
1BA
330
1F
100
AcDbEntity
  8
Text
100
AcDbLine
 10
446.3878753543888
 20
585.5941162686763
 30
0.0
 11
447.3789007581732
 21
585.8776099177302
 31
0.0
  0
LWPOLYLINE
  5
1BB
330
1F
100
AcDbEntity
  8
Text
100
AcDbPolyline
 90
        3
 70
     0
 43
0.0
 10
470.4076191279549
 20
597.0990807972223
 10
466.3150584571086
 20
597.0990807972224
 10
446.3878753543888
 20
585.5941162686763
  0
LINE
  5
1BC
330
1F
100
AcDbEntity
  8
Text
100
AcDbLine
 10
448.8635506964494
 20
599.0234480938411
 30
0.0
 11
449.6045761002338
 21
599.7399544447873
 31
0.0
  0
LINE
  5
1BD
330
1F
100
AcDbEntity
  8
Text
100
AcDbLine
 10
448.8635506964494
 20
599.0234480938411
 30
0.0
 11
449.8545761002338
 21
599.306941742895
 31
0.0
  0
LWPOLYLINE
  5
1BE
330
1F
100
AcDbEntity
  8
Text
100
AcDbPolyline
 90
        3
 70
     0
 43
0.0
 10
470.4076191279549
 20
609.0990807972223
 10
466.3150584571086
 20
609.0990807972224
 10
448.8635506964494
 20
599.0234480938411
  0
MTEXT
  5
1BF
330
1F
100
AcDbEntity
  8
Text
 62
   156
370
     9
100
AcDbMText
 10
470.9076191279548
 20
612.9711988241522
 30
0.0
 40
1.0
 41
23.44
 46
0.0
 71
     7
 72
     1
  1
\fArial|b0|i0|c0|p0;EXISTING EXTERIOR SHEATHING
 73
     1
 44
1.0
1001
CHIEFARC-LNWT
1070
    10
1001
CHIEFARC_RTFBINARY
1000

1001
CHIEFARC_SIMPLE_TEXT_BINARY
1000

1001
CHIEFARC-WIDTHEXPANDED
1070
     1
1001
CHIEFARC_AUTOHEIGHT
1070
     1
1001
CHIEFARC_AUTOWIDTH
1070
     1
  0
MTEXT
  5
1C5
330
1F
100
AcDbEntity
  8
Text
 62
   156
370
     9
100
AcDbMText
 10
470.9076191279549
 20
616.9711988241522
 30
0.0
 40
1.0
 41
27.08
 46
0.0
 71
     7
 72
     1
  1
\fArial|b0|i0|c0|p0;EXISTING 2" X 6" STEEL FRAMED WALL
 73
     1
 44
1.0
1001
CHIEFARC-LNWT
1070
    10
1001
CHIEFARC_RTFBINARY
1000

1001
CHIEFARC_SIMPLE_TEXT_BINARY
1000

1001
CHIEFARC-WIDTHEXPANDED
1070
     1
1001
CHIEFARC_AUTOHEIGHT
1070
     1
1001
CHIEFARC_AUTOWIDTH
1070
     1
  0
MTEXT
  5
1C6
330
1F
100
AcDbEntity
  8
Text
 62
   156
370
     9
100
AcDbMText
 10
470.9076191279549
 20
620.9711988241522
 30
0.0
 40
1.0
 41
17.08
 46
0.0
 71
     7
 72
     1
  1
\fArial|b0|i0|c0|p0;EXISTING 1/2" DRYWALL
 73
     1
 44
1.0
1001
CHIEFARC-LNWT
1070
    10
1001
CHIEFARC_RTFBINARY
1000

1001
CHIEFARC_SIMPLE_TEXT_BINARY
1000

1001
CHIEFARC-WIDTHEXPANDED
1070
     1
1001
CHIEFARC_AUTOHEIGHT
1070
     1
1001
CHIEFARC_AUTOWIDTH
1070
     1
  0
MTEXT
  5
1C7
330
1F
100
AcDbEntity
  8
Text
 62
   156
370
     9
100
AcDbMText
 10
470.9076191279548
 20
600.9711988241522
 30
0.0
 40
1.0
 41
12.55
 46
0.0
 71
     7
 72
     1
  1
\fArial|b0|i0|c0|p0;INSOFAST PANEL
 73
     1
 44
1.0
1001
CHIEFARC-LNWT
1070
    10
1001
CHIEFARC_RTFBINARY
1000

1001
CHIEFARC_SIMPLE_TEXT_BINARY
1000

1001
CHIEFARC-WIDTHEXPANDED
1070
     1
1001
CHIEFARC_AUTOHEIGHT
1070
     1
1001
CHIEFARC_AUTOWIDTH
1070
     1
  0
MTEXT
  5
1C8
330
1F
100
AcDbEntity
  8
Text
 62
   156
370
     9
100
AcDbMText
 10
470.9076191279548
 20
596.9711988241522
 30
0.0
 40
1.0
 41
16.45
 46
0.0
 71
     7
 72
     1
  1
\fArial|b0|i0|c0|p0;NEW EXTERIOR FINISH
 73
     1
 44
1.0
1001
CHIEFARC-LNWT
1070
    10
1001
CHIEFARC_RTFBINARY
1000

1001
CHIEFARC_SIMPLE_TEXT_BINARY
1000

1001
CHIEFARC-WIDTHEXPANDED
1070
     1
1001
CHIEFARC_AUTOHEIGHT
1070
     1
1001
CHIEFARC_AUTOWIDTH
1070
     1
  0
MTEXT
  5
1C9
330
1F
100
AcDbEntity
  8
Text
 62
   156
370
     9
100
AcDbMText
 10
470.9076191279549
 20
604.9711988241522
 30
0.0
 40
1.0
 41
17.7
 46
0.0
 71
     7
 72
     1
  1
\fArial|b0|i0|c0|p0;DRAIN & DRY CHANNELS
 73
     1
 44
1.0
1001
CHIEFARC-LNWT
1070
    10
1001
CHIEFARC_RTFBINARY
1000

1001
CHIEFARC_SIMPLE_TEXT_BINARY
1000

1001
CHIEFARC-WIDTHEXPANDED
1070
     1
1001
CHIEFARC_AUTOHEIGHT
1070
     1
1001
CHIEFARC_AUTOWIDTH
1070
     1
  0
MTEXT
  5
1CA
330
1F
100
AcDbEntity
  8
Text
 62
   156
370
     9
100
AcDbMText
 10
470.9076191279549
 20
608.7011988241522
 30
0.0
 40
1.0
 41
34.60000000000001
 46
0.0
 71
     7
 72
     1
  1
\fArial|b0|i0|c0|p0;BUILDING WRAP (WEATHER RESISTANT BARRIER)
 73
     1
 44
1.0
1001
CHIEFARC-LNWT
1070
    10
1001
CHIEFARC_RTFBINARY
1000

1001
CHIEFARC_SIMPLE_TEXT_BINARY
1000

1001
CHIEFARC-WIDTHEXPANDED
1070
     1
1001
CHIEFARC_AUTOHEIGHT
1070
     1
1001
CHIEFARC_AUTOWIDTH
1070
     1
  0
MTEXT
  5
1CB
330
1F
100
AcDbEntity
  8
Text
 62
   156
370
     9
100
AcDbMText
 10
422.0000000000001
 20
543.4520670391062
 30
0.0
 40
2.0
 41
76.30000000000001
 46
0.0
 71
     7
 72
     1
  1
\fArial|b0|i0|c0|p0;ISF 04.02.01     INSOFAST - STEEL FRAMED - EXTERIOR
 73
     1
 44
1.0
1001
CHIEFARC-LNWT
1070
    10
1001
CHIEFARC_RTFBINARY
1000

1001
CHIEFARC_SIMPLE_TEXT_BINARY
1000

1001
CHIEFARC-WIDTHEXPANDED
1070
     1
1001
CHIEFARC_AUTOHEIGHT
1070
     1
1001
CHIEFARC_AUTOWIDTH
1070
     1
  0
INSERT
  5
1DB
330
1F
100
AcDbEntity
  8
_DEFAULT_CAD_LAYER
  6
Continuous
370
     0
100
AcDbBlockReference
  2
block34_1
 10
457.0667759921781
 20
625.070218642656
 30
0.0
 42
0.6307411349277497
 50
90.0
1001
CHIEFARC-LNWT
1070
     0
  0
INSERT
  5
1DC
330
1F
100
AcDbEntity
  8
_DEFAULT_CAD_LAYER
100
AcDbBlockReference
  2
block34_1
 10
444.3246538639926
 20
575.7779757645833
 30
0.0
 42
0.6402259640243956
 50
-90.0
  0
ENDSEC
  0
SECTION
  2
OBJECTS
  0
DICTIONARY
  5
C
330
0
100
AcDbDictionary
281
     1
  3
ACAD_GROUP
350
D
  3
ACAD_LAYOUT
350
1A
  3
ACAD_MLEADERSTYLE
350
1DE
  3
ACAD_MLINESTYLE
350
17
  3
ACAD_PLOTSETTINGS
350
19
  3
ACAD_PLOTSTYLENAME
350
E
  3
ACAD_TABLESTYLE
350
1DD
  3
ACAD_VISUALSTYLE
350
2A
  0
DICTIONARY
  5
D
102
{ACAD_REACTORS
330
C
102
}
330
C
100
AcDbDictionary
281
     1
  0
DICTIONARY
  5
1A
102
{ACAD_REACTORS
330
C
102
}
330
C
100
AcDbDictionary
281
     1
  3
Layout1
350
1E
  3
Layout2
350
26
  3
Model
350
22
  0
DICTIONARY
  5
1DE
102
{ACAD_REACTORS
330
C
102
}
330
C
100
AcDbDictionary
281
     1
  0
DICTIONARY
  5
17
102
{ACAD_REACTORS
330
C
102
}
330
C
100
AcDbDictionary
281
     1
  3
Standard
350
18
  0
DICTIONARY
  5
19
102
{ACAD_REACTORS
330
C
102
}
330
C
100
AcDbDictionary
281
     1
  0
ACDBDICTIONARYWDFLT
  5
E
102
{ACAD_REACTORS
330
C
102
}
330
C
100
AcDbDictionary
281
     1
  3
Normal
350
F
100
AcDbDictionaryWithDefault
340
F
  0
DICTIONARY
  5
1DD
102
{ACAD_REACTORS
330
C
102
}
330
C
100
AcDbDictionary
281
     1
  0
DICTIONARY
  5
2A
102
{ACAD_REACTORS
330
C
102
}
330
C
100
AcDbDictionary
281
     1
  3
2dWireframe
350
2F
  3
3D Hidden
350
31
  3
3dWireframe
350
30
  3
Basic
350
32
  3
Brighten
350
36
  3
ColorChange
350
3A
  3
Conceptual
350
34
  3
Dim
350
35
  3
Facepattern
350
39
  3
Flat
350
2B
  3
FlatWithEdges
350
2C
  3
Gouraud
350
2D
  3
GouraudWithEdges
350
2E
  3
Linepattern
350
38
  3
Realistic
350
33
  3
Thicken
350
37
  0
LAYOUT
  5
1E
102
{ACAD_REACTORS
330
1A
102
}
330
1A
100
AcDbPlotSettings
  1

  2
none_device
  4

  6

 40
0.0
 41
0.0
 42
0.0
 43
0.0
 44
0.0
 45
0.0
 46
0.0
 47
0.0
 48
0.0
 49
0.0
140
0.0
141
0.0
142
1.0
143
1.0
 70
   688
 72
     0
 73
     0
 74
     5
  7

 75
    16
 76
     0
 77
     2
 78
   300
147
1.0
148
0.0
149
0.0
100
AcDbLayout
  1
Layout1
 70
     1
 71
     1
 10
0.0
 20
0.0
 11
12.0
 21
9.0
 12
0.0
 22
0.0
 32
0.0
 14
1.000000000000000E+20
 24
1.000000000000000E+20
 34
1.000000000000000E+20
 15
-1.000000000000000E+20
 25
-1.000000000000000E+20
 35
-1.000000000000000E+20
146
0.0
 13
0.0
 23
0.0
 33
0.0
 16
1.0
 26
0.0
 36
0.0
 17
0.0
 27
1.0
 37
0.0
 76
     0
330
1B
  0
LAYOUT
  5
26
102
{ACAD_REACTORS
330
1A
102
}
330
1A
100
AcDbPlotSettings
  1

  2
none_device
  4

  6

 40
0.0
 41
0.0
 42
0.0
 43
0.0
 44
0.0
 45
0.0
 46
0.0
 47
0.0
 48
0.0
 49
0.0
140
0.0
141
0.0
142
1.0
143
1.0
 70
   688
 72
     0
 73
     0
 74
     5
  7

 75
    16
 76
     0
 77
     2
 78
   300
147
1.0
148
0.0
149
0.0
100
AcDbLayout
  1
Layout2
 70
     1
 71
     2
 10
0.0
 20
0.0
 11
0.0
 21
0.0
 12
0.0
 22
0.0
 32
0.0
 14
0.0
 24
0.0
 34
0.0
 15
0.0
 25
0.0
 35
0.0
146
0.0
 13
0.0
 23
0.0
 33
0.0
 16
1.0
 26
0.0
 36
0.0
 17
0.0
 27
1.0
 37
0.0
 76
     0
330
23
  0
LAYOUT
  5
22
102
{ACAD_REACTORS
330
1A
102
}
330
1A
100
AcDbPlotSettings
  1

  2
none_device
  4

  6

 40
0.0
 41
0.0
 42
0.0
 43
0.0
 44
0.0
 45
0.0
 46
0.0
 47
0.0
 48
0.0
 49
0.0
140
0.0
141
0.0
142
1.0
143
1.0
 70
  1712
 72
     0
 73
     0
 74
     0
  7

 75
     0
 76
     0
 77
     2
 78
   300
147
1.0
148
0.0
149
0.0
100
AcDbLayout
  1
Model
 70
     1
 71
     0
 10
0.0
 20
0.0
 11
12.0
 21
9.0
 12
0.0
 22
0.0
 32
0.0
 14
0.0
 24
1.0
 34
0.0
 15
1.0
 25
0.0
 35
0.0
146
0.0
 13
0.0
 23
0.0
 33
0.0
 16
1.0
 26
0.0
 36
0.0
 17
0.0
 27
1.0
 37
0.0
 76
     0
330
1F
331
29
  0
MLINESTYLE
  5
18
102
{ACAD_REACTORS
330
17
102
}
330
17
100
AcDbMlineStyle
  2
Standard
 70
     0
  3

 62
   256
 51
90.0
 52
90.0
 71
     2
 49
0.5
 62
   256
  6
BYLAYER
 49
-0.5
 62
   256
  6
BYLAYER
  0
ACDBPLACEHOLDER
  5
F
102
{ACAD_REACTORS
330
E
102
}
330
E
  0
VISUALSTYLE
  5
2F
102
{ACAD_REACTORS
330
2A
102
}
330
2A
100
AcDbVisualStyle
  2
2dWireframe
 70
     4
 71
     0
 72
     2
 73
     0
 90
        0
 40
-0.6
 41
-30.0
 62
     5
 63
     7
421
 16777215
 74
     1
 91
        4
 64
     7
 65
   257
 75
     1
175
     1
 42
1.0
 92
        0
 66
   257
 43
1.0
 76
     1
 77
     6
 78
     2
 67
     7
 79
     5
170
     0
171
     0
290
     0
174
     0
 93
        1
 44
0.0
173
     0
291
     0
 45
0.0
  0
VISUALSTYLE
  5
31
102
{ACAD_REACTORS
330
2A
102
}
330
2A
100
AcDbVisualStyle
  2
3D Hidden
 70
     6
 71
     1
 72
     2
 73
     2
 90
        0
 40
-0.6
 41
-30.0
 62
     5
 63
     7
421
 16777215
 74
     2
 91
        2
 64
     7
 65
   257
 75
     2
175
     1
 42
40.0
 92
        0
 66
   257
 43
1.0
 76
     1
 77
     6
 78
     2
 67
     7
 79
     3
170
     0
171
     0
290
     0
174
     0
 93
        1
 44
0.0
173
     0
291
     0
 45
0.0
  0
VISUALSTYLE
  5
30
102
{ACAD_REACTORS
330
2A
102
}
330
2A
100
AcDbVisualStyle
  2
3dWireframe
 70
     5
 71
     0
 72
     2
 73
     0
 90
        0
 40
-0.6
 41
-30.0
 62
     5
 63
     7
421
 16777215
 74
     1
 91
        4
 64
     7
 65
   257
 75
     1
175
     1
 42
1.0
 92
        0
 66
   257
 43
1.0
 76
     1
 77
     6
 78
     2
 67
     7
 79
     5
170
     0
171
     0
290
     0
174
     0
 93
        1
 44
0.0
173
     0
291
     0
 45
0.0
  0
VISUALSTYLE
  5
32
102
{ACAD_REACTORS
330
2A
102
}
330
2A
100
AcDbVisualStyle
  2
Basic
 70
     7
 71
     1
 72
     0
 73
     1
 90
        0
 40
-0.6
 41
-30.0
 62
     5
 63
     7
421
 16777215
 74
     0
 91
        4
 64
     7
 65
   257
 75
     1
175
     1
 42
1.0
 92
        8
 66
     7
 43
1.0
 76
     1
 77
     6
 78
     2
 67
     7
 79
     5
170
     0
171
     0
290
     0
174
     0
 93
        1
 44
0.0
173
     0
291
     1
 45
0.0
  0
VISUALSTYLE
  5
36
102
{ACAD_REACTORS
330
2A
102
}
330
2A
100
AcDbVisualStyle
  2
Brighten
 70
    12
 71
     2
 72
     2
 73
     0
 90
        0
 40
-0.6
 41
-30.0
 62
     5
 63
     7
421
 16777215
 74
     1
 91
        4
 64
     7
 65
   257
 75
     1
175
     1
 42
1.0
 92
        8
 66
     7
 43
1.0
 76
     1
 77
     6
 78
     2
 67
     7
 79
     5
170
     0
171
     0
290
     0
174
     0
 93
        1
 44
50.0
173
     0
291
     1
 45
0.0
  0
VISUALSTYLE
  5
3A
102
{ACAD_REACTORS
330
2A
102
}
330
2A
100
AcDbVisualStyle
  2
ColorChange
 70
    16
 71
     2
 72
     2
 73
     3
 90
        0
 40
-0.6
 41
-30.0
 62
     5
 63
     8
421
  8421504
 74
     1
 91
        4
 64
     7
 65
   257
 75
     1
175
     1
 42
1.0
 92
        8
 66
     8
424
  8421504
 43
1.0
 76
     1
 77
     6
 78
     2
 67
     7
 79
     5
170
     0
171
     0
290
     0
174
     0
 93
        1
 44
0.0
173
     0
291
     1
 45
0.0
  0
VISUALSTYLE
  5
34
102
{ACAD_REACTORS
330
2A
102
}
330
2A
100
AcDbVisualStyle
  2
Conceptual
 70
     9
 71
     3
 72
     2
 73
     0
 90
        0
 40
-0.6
 41
-30.0
 62
     5
 63
     7
421
 16777215
 74
     2
 91
        2
 64
     7
 65
   257
 75
     1
175
     1
 42
40.0
 92
        8
 66
     7
 43
1.0
 76
     1
 77
     6
 78
     2
 67
     7
 79
     3
170
     0
171
     0
290
     0
174
     0
 93
        1
 44
0.0
173
     0
291
     0
 45
0.0
  0
VISUALSTYLE
  5
35
102
{ACAD_REACTORS
330
2A
102
}
330
2A
100
AcDbVisualStyle
  2
Dim
 70
    11
 71
     2
 72
     2
 73
     0
 90
        0
 40
-0.6
 41
-30.0
 62
     5
 63
     7
421
 16777215
 74
     1
 91
        4
 64
     7
 65
   257
 75
     1
175
     1
 42
1.0
 92
        8
 66
     7
 43
1.0
 76
     1
 77
     6
 78
     2
 67
     7
 79
     5
170
     0
171
     0
290
     0
174
     0
 93
        1
 44
-50.0
173
     0
291
     1
 45
0.0
  0
VISUALSTYLE
  5
39
102
{ACAD_REACTORS
330
2A
102
}
330
2A
100
AcDbVisualStyle
  2
Facepattern
 70
    15
 71
     2
 72
     2
 73
     0
 90
        0
 40
-0.6
 41
-30.0
 62
     5
 63
     7
421
 16777215
 74
     1
 91
        4
 64
     7
 65
   257
 75
     1
175
     1
 42
1.0
 92
        8
 66
     7
 43
1.0
 76
     1
 77
     6
 78
     2
 67
     7
 79
     5
170
     0
171
     0
290
     0
174
     0
 93
        1
 44
0.0
173
     0
291
     1
 45
0.0
  0
VISUALSTYLE
  5
2B
102
{ACAD_REACTORS
330
2A
102
}
330
2A
100
AcDbVisualStyle
  2
Flat
 70
     0
 71
     2
 72
     1
 73
     1
 90
        2
 40
-0.6
 41
30.0
 62
     5
 63
     7
421
 16777215
 74
     0
 91
        4
 64
     7
 65
   257
 75
     1
175
     1
 42
1.0
 92
        8
 66
     7
 43
1.0
 76
     1
 77
     6
 78
     2
 67
     7
 79
     5
170
     0
171
     0
290
     0
174
     0
 93
       13
 44
0.0
173
     0
291
     1
 45
0.0
  0
VISUALSTYLE
  5
2C
102
{ACAD_REACTORS
330
2A
102
}
330
2A
100
AcDbVisualStyle
  2
FlatWithEdges
 70
     1
 71
     2
 72
     1
 73
     1
 90
        2
 40
-0.6
 41
30.0
 62
     5
 63
     7
421
 16777215
 74
     1
 91
        4
 64
     7
 65
   257
 75
     1
175
     1
 42
1.0
 92
        0
 66
   257
 43
1.0
 76
     1
 77
     6
 78
     2
 67
     7
 79
     5
170
     0
171
     0
290
     0
174
     0
 93
       13
 44
0.0
173
     0
291
     1
 45
0.0
  0
VISUALSTYLE
  5
2D
102
{ACAD_REACTORS
330
2A
102
}
330
2A
100
AcDbVisualStyle
  2
Gouraud
 70
     2
 71
     2
 72
     2
 73
     1
 90
        2
 40
-0.6
 41
30.0
 62
     5
 63
     7
421
 16777215
 74
     0
 91
        4
 64
     7
 65
   257
 75
     1
175
     1
 42
1.0
 92
        0
 66
     7
 43
1.0
 76
     1
 77
     6
 78
     2
 67
     7
 79
     5
170
     0
171
     0
290
     0
174
     0
 93
       13
 44
0.0
173
     0
291
     1
 45
0.0
  0
VISUALSTYLE
  5
2E
102
{ACAD_REACTORS
330
2A
102
}
330
2A
100
AcDbVisualStyle
  2
GouraudWithEdges
 70
     3
 71
     2
 72
     2
 73
     1
 90
        2
 40
-0.6
 41
30.0
 62
     5
 63
     7
421
 16777215
 74
     1
 91
        4
 64
     7
 65
   257
 75
     1
175
     1
 42
1.0
 92
        0
 66
   257
 43
1.0
 76
     1
 77
     6
 78
     2
 67
     7
 79
     5
170
     0
171
     0
290
     0
174
     0
 93
       13
 44
0.0
173
     0
291
     1
 45
0.0
  0
VISUALSTYLE
  5
38
102
{ACAD_REACTORS
330
2A
102
}
330
2A
100
AcDbVisualStyle
  2
Linepattern
 70
    14
 71
     2
 72
     2
 73
     0
 90
        0
 40
-0.6
 41
-30.0
 62
     5
 63
     7
421
 16777215
 74
     1
 91
        4
 64
     7
 65
   257
 75
     7
175
     7
 42
1.0
 92
        8
 66
     7
 43
1.0
 76
     1
 77
     6
 78
     2
 67
     7
 79
     5
170
     0
171
     0
290
     0
174
     0
 93
        1
 44
0.0
173
     0
291
     1
 45
0.0
  0
VISUALSTYLE
  5
33
102
{ACAD_REACTORS
330
2A
102
}
330
2A
100
AcDbVisualStyle
  2
Realistic
 70
     8
 71
     2
 72
     2
 73
     0
 90
        0
 40
-0.6
 41
-30.0
 62
     5
 63
     7
421
 16777215
 74
     1
 91
        0
 64
     7
 65
   257
 75
     1
175
     1
 42
1.0
 92
        8
 66
     8
424
  7895160
 43
1.0
 76
     1
 77
     6
 78
     2
 67
     7
 79
     5
170
     0
171
     0
290
     0
174
     0
 93
       13
 44
0.0
173
     0
291
     0
 45
0.0
  0
VISUALSTYLE
  5
37
102
{ACAD_REACTORS
330
2A
102
}
330
2A
100
AcDbVisualStyle
  2
Thicken
 70
    13
 71
     2
 72
     2
 73
     0
 90
        0
 40
-0.6
 41
-30.0
 62
     5
 63
     7
421
 16777215
 74
     1
 91
        4
 64
     7
 65
   257
 75
     1
175
     1
 42
1.0
 92
       12
 66
     7
 43
1.0
 76
     1
 77
     6
 78
     2
 67
     7
 79
     5
170
     0
171
     0
290
     0
174
     0
 93
        1
 44
0.0
173
     0
291
     1
 45
0.0
  0
ENDSEC
  0
EOF
