  0
SECTION
  2
HEADER
  9
$ACADVER
  1
AC1021
  9
$ACADMAINTVER
 70
    25
  9
$DWGCODEPAGE
  3
ANSI_1252
  9
$COMMENTS
  1
Chief Architect X2; Version 12.6.0.25; Chief Architect, Inc.; 2009
  9
$INSBASE
 10
0.0
 20
0.0
 30
0.0
  9
$EXTMIN
 10
0.0
 20
1.0
 30
0.0
  9
$EXTMAX
 10
1.0
 20
0.0
 30
0.0
  9
$LIMMIN
 10
0.0
 20
0.0
  9
$LIMMAX
 10
12.0
 20
9.0
  9
$ORTHOMODE
 70
     0
  9
$REGENMODE
 70
     1
  9
$FILLMODE
 70
     1
  9
$QTEXTMODE
 70
     0
  9
$MIRRTEXT
 70
     1
  9
$LTSCALE
 40
96.0
  9
$ATTMODE
 70
     1
  9
$TEXTSIZE
 40
0.2
  9
$TRACEWID
 40
0.05
  9
$TEXTSTYLE
  7
Standard
  9
$CLAYER
  8
0
  9
$CELTYPE
  6
ByLayer
  9
$CECOLOR
 62
   256
  9
$CELTSCALE
 40
1.0
  9
$DISPSILH
 70
     0
  9
$DIMSCALE
 40
1.0
  9
$DIMASZ
 40
5.0
  9
$DIMEXO
 40
3.0
  9
$DIMDLI
 40
0.38
  9
$DIMRND
 40
0.0
  9
$DIMDLE
 40
0.0
  9
$DIMEXE
 40
3.0
  9
$DIMTP
 40
0.0
  9
$DIMTM
 40
0.0
  9
$DIMTXT
 40
6.0
  9
$DIMCEN
 40
0.09
  9
$DIMTSZ
 40
0.0
  9
$DIMTOL
 70
     0
  9
$DIMLIM
 70
     0
  9
$DIMTIH
 70
     0
  9
$DIMTOH
 70
     0
  9
$DIMSE1
 70
     0
  9
$DIMSE2
 70
     0
  9
$DIMTAD
 70
     0
  9
$DIMZIN
 70
     0
  9
$DIMBLK
  1

  9
$DIMASO
 70
     1
  9
$DIMSHO
 70
     1
  9
$DIMPOST
  1

  9
$DIMAPOST
  1

  9
$DIMALT
 70
     0
  9
$DIMALTD
 70
     0
  9
$DIMALTF
 40
1.0
  9
$DIMLFAC
 40
1.0
  9
$DIMTOFL
 70
     0
  9
$DIMTVP
 40
0.0
  9
$DIMTIX
 70
     0
  9
$DIMSOXD
 70
     0
  9
$DIMSAH
 70
     0
  9
$DIMBLK1
  1

  9
$DIMBLK2
  1

  9
$DIMSTYLE
  2
Standard
  9
$DIMCLRD
 70
     0
  9
$DIMCLRE
 70
     0
  9
$DIMCLRT
 70
     0
  9
$DIMTFAC
 40
1.0
  9
$DIMGAP
 40
0.5
  9
$DIMJUST
 70
     0
  9
$DIMSD1
 70
     0
  9
$DIMSD2
 70
     0
  9
$DIMTOLJ
 70
     1
  9
$DIMTZIN
 70
     0
  9
$DIMALTZ
 70
    12
  9
$DIMALTTZ
 70
     0
  9
$DIMUPT
 70
     0
  9
$DIMDEC
 70
     4
  9
$DIMTDEC
 70
     4
  9
$DIMALTU
 70
     2
  9
$DIMALTTD
 70
     2
  9
$DIMTXSTY
  7
Standard
  9
$DIMAUNIT
 70
     0
  9
$DIMADEC
 70
     0
  9
$DIMALTRND
 40
0.0
  9
$DIMAZIN
 70
     0
  9
$DIMDSEP
 70
    46
  9
$DIMATFIT
 70
     3
  9
$DIMFRAC
 70
     2
  9
$DIMLDRBLK
  1

  9
$DIMLUNIT
 70
     4
  9
$DIMLWD
 70
    -2
  9
$DIMLWE
 70
    -2
  9
$DIMTMOVE
 70
     0
  9
$DIMFXL
 40
3.0
  9
$DIMFXLON
 70
     0
  9
$DIMJOGANG
 40
0.7853981633974483
  9
$DIMTFILL
 70
     0
  9
$DIMTFILLCLR
 70
     0
  9
$DIMARCSYM
 70
     0
  9
$DIMLTYPE
  6

  9
$DIMLTEX1
  6

  9
$DIMLTEX2
  6

  9
$LUNITS
 70
     2
  9
$LUPREC
 70
     4
  9
$SKETCHINC
 40
0.1
  9
$FILLETRAD
 40
0.5
  9
$AUNITS
 70
     0
  9
$AUPREC
 70
     0
  9
$MENU
  1
.
  9
$ELEVATION
 40
0.0
  9
$PELEVATION
 40
0.0
  9
$THICKNESS
 40
0.0
  9
$LIMCHECK
 70
     0
  9
$CHAMFERA
 40
0.5
  9
$CHAMFERB
 40
0.5
  9
$CHAMFERC
 40
1.0
  9
$CHAMFERD
 40
0.0
  9
$SKPOLY
 70
     0
  9
$TDCREATE
 40
2455498.668531285
  9
$TDUCREATE
 40
2455498.876864618
  9
$TDUPDATE
 40
2455498.668531296
  9
$TDUUPDATE
 40
2455498.87686463
  9
$TDINDWG
 40
0.0000000116
  9
$TDUSRTIMER
 40
0.0000000116
  9
$USRTIMER
 70
     1
  9
$ANGBASE
 50
0.0
  9
$ANGDIR
 70
     0
  9
$PDMODE
 70
     0
  9
$PDSIZE
 40
0.0
  9
$PLINEWID
 40
0.0
  9
$SPLFRAME
 70
     0
  9
$SPLINETYPE
 70
     6
  9
$SPLINESEGS
 70
     8
  9
$HANDSEED
  5
1CE
  9
$SURFTAB1
 70
     6
  9
$SURFTAB2
 70
     6
  9
$SURFTYPE
 70
     6
  9
$SURFU
 70
     6
  9
$SURFV
 70
     6
  9
$UCSBASE
  2

  9
$UCSNAME
  2

  9
$UCSORG
 10
0.0
 20
0.0
 30
0.0
  9
$UCSXDIR
 10
1.0
 20
0.0
 30
0.0
  9
$UCSYDIR
 10
0.0
 20
1.0
 30
0.0
  9
$UCSORTHOREF
  2

  9
$UCSORTHOVIEW
 70
     0
  9
$UCSORGTOP
 10
0.0
 20
0.0
 30
0.0
  9
$UCSORGBOTTOM
 10
0.0
 20
0.0
 30
0.0
  9
$UCSORGLEFT
 10
0.0
 20
0.0
 30
0.0
  9
$UCSORGRIGHT
 10
0.0
 20
0.0
 30
0.0
  9
$UCSORGFRONT
 10
0.0
 20
0.0
 30
0.0
  9
$UCSORGBACK
 10
0.0
 20
0.0
 30
0.0
  9
$PUCSBASE
  2

  9
$PUCSNAME
  2

  9
$PUCSORG
 10
0.0
 20
0.0
 30
0.0
  9
$PUCSXDIR
 10
1.0
 20
0.0
 30
0.0
  9
$PUCSYDIR
 10
0.0
 20
1.0
 30
0.0
  9
$PUCSORTHOREF
  2

  9
$PUCSORTHOVIEW
 70
     0
  9
$PUCSORGTOP
 10
0.0
 20
0.0
 30
0.0
  9
$PUCSORGBOTTOM
 10
0.0
 20
0.0
 30
0.0
  9
$PUCSORGLEFT
 10
0.0
 20
0.0
 30
0.0
  9
$PUCSORGRIGHT
 10
0.0
 20
0.0
 30
0.0
  9
$PUCSORGFRONT
 10
0.0
 20
0.0
 30
0.0
  9
$PUCSORGBACK
 10
0.0
 20
0.0
 30
0.0
  9
$USERI1
 70
     0
  9
$USERI2
 70
     0
  9
$USERI3
 70
     0
  9
$USERI4
 70
     0
  9
$USERI5
 70
     0
  9
$USERR1
 40
0.0
  9
$USERR2
 40
0.0
  9
$USERR3
 40
0.0
  9
$USERR4
 40
0.0
  9
$USERR5
 40
0.0
  9
$WORLDVIEW
 70
     1
  9
$SHADEDGE
 70
     3
  9
$SHADEDIF
 70
    70
  9
$TILEMODE
 70
     1
  9
$MAXACTVP
 70
    64
  9
$PINSBASE
 10
0.0
 20
0.0
 30
0.0
  9
$PLIMCHECK
 70
     0
  9
$PEXTMIN
 10
1.000000000000000E+20
 20
1.000000000000000E+20
 30
1.000000000000000E+20
  9
$PEXTMAX
 10
-1.000000000000000E+20
 20
-1.000000000000000E+20
 30
-1.000000000000000E+20
  9
$PLIMMIN
 10
0.0
 20
0.0
  9
$PLIMMAX
 10
12.0
 20
9.0
  9
$UNITMODE
 70
     0
  9
$VISRETAIN
 70
     1
  9
$PLINEGEN
 70
     0
  9
$PSLTSCALE
 70
     1
  9
$TREEDEPTH
 70
  3020
  9
$CMLSTYLE
  2
Standard
  9
$CMLJUST
 70
     0
  9
$CMLSCALE
 40
1.0
  9
$PROXYGRAPHICS
 70
     1
  9
$MEASUREMENT
 70
     0
  9
$CELWEIGHT
370
    -1
  9
$ENDCAPS
280
     0
  9
$JOINSTYLE
280
     0
  9
$LWDISPLAY
290
     0
  9
$INSUNITS
 70
     1
  9
$HYPERLINKBASE
  1

  9
$STYLESHEET
  1

  9
$XEDIT
290
     1
  9
$CEPSNTYPE
380
     0
  9
$PSTYLEMODE
290
     1
  9
$FINGERPRINTGUID
  2
{F5EEF320-BE8B-47E8-B401-503BC1BAFF08}
  9
$VERSIONGUID
  2
{FAEB1C32-E019-11D5-929B-00C0DF256EC4}
  9
$EXTNAMES
290
     1
  9
$PSVPSCALE
 40
0.0
  9
$OLESTARTUP
290
     0
  9
$SORTENTS
280
   127
  9
$INDEXCTL
280
     0
  9
$HIDETEXT
280
     1
  9
$XCLIPFRAME
290
     0
  9
$HALOGAP
280
     0
  9
$OBSCOLOR
 70
   257
  9
$OBSLTYPE
280
     0
  9
$INTERSECTIONDISPLAY
280
     0
  9
$INTERSECTIONCOLOR
 70
   257
  9
$DIMASSOC
280
     2
  9
$PROJECTNAME
  1

  9
$CAMERADISPLAY
290
     0
  9
$LENSLENGTH
 40
50.0
  9
$CAMERAHEIGHT
 40
0.0
  9
$STEPSPERSEC
 40
2.0
  9
$STEPSIZE
 40
6.0
  9
$3DDWFPREC
 40
2.0
  9
$PSOLWIDTH
 40
0.25
  9
$PSOLHEIGHT
 40
4.0
  9
$LOFTANG1
 40
1.570796326794897
  9
$LOFTANG2
 40
1.570796326794897
  9
$LOFTMAG1
 40
0.0
  9
$LOFTMAG2
 40
0.0
  9
$LOFTPARAM
 70
     7
  9
$LOFTNORMALS
280
     1
  9
$LATITUDE
 40
37.795
  9
$LONGITUDE
 40
-122.394
  9
$NORTHDIRECTION
 40
0.0
  9
$TIMEZONE
 70
 -8000
  9
$LIGHTGLYPHDISPLAY
280
     1
  9
$TILEMODELIGHTSYNCH
280
     1
  9
$SOLIDHIST
280
     1
  9
$SHOWHIST
280
     1
  9
$DWFFRAME
280
     2
  9
$DGNFRAME
280
     2
  9
$REALWORLDSCALE
290
     1
  9
$INTERFERECOLOR
 62
   256
  9
$CSHADOW
280
     0
  9
$SHADOWPLANELOCATION
 40
0.0
  0
ENDSEC
  0
SECTION
  2
CLASSES
  0
CLASS
  1
ACDBDICTIONARYWDFLT
  2
AcDbDictionaryWithDefault
  3
ObjectDBX Classes
 90
        0
 91
        4
280
     0
281
     0
  0
CLASS
  1
VISUALSTYLE
  2
AcDbVisualStyle
  3
ObjectDBX Classes
 90
     4095
 91
        4
280
     0
281
     0
  0
ENDSEC
  0
SECTION
  2
TABLES
  0
TABLE
  2
VPORT
  5
8
330
0
100
AcDbSymbolTable
 70
     1
  0
VPORT
  5
29
330
8
100
AcDbSymbolTableRecord
100
AcDbViewportTableRecord
  2
*Active
 70
     0
 10
0.0
 20
0.0
 11
1.0
 21
1.0
 12
10.42990654205607
 22
4.5
 13
0.0
 23
0.0
 14
0.5
 24
0.5
 15
0.5
 25
0.5
 16
0.0
 26
0.0
 36
1.0
 17
0.0
 27
0.0
 37
0.0
 40
9.0
 41
1.972972972850329
 42
50.0
 43
0.0
 44
0.0
 50
0.0
 51
0.0
 71
     0
 72
   100
 73
     1
 74
     3
 75
     0
 76
     0
 77
     0
 78
     0
281
     0
 65
     1
110
0.0
120
0.0
130
0.0
111
1.0
121
0.0
131
0.0
112
0.0
122
1.0
132
0.0
 79
     0
146
0.0
 60
     3
 61
     5
292
     1
282
     1
141
0.0
142
0.0
 63
   250
  0
ENDTAB
  0
TABLE
  2
LTYPE
  5
5
330
0
100
AcDbSymbolTable
 70
     2
  0
LTYPE
  5
14
330
5
100
AcDbSymbolTableRecord
100
AcDbLinetypeTableRecord
  2
ByBlock
 70
     0
  3

 72
    65
 73
     0
 40
0.0
  0
LTYPE
  5
15
330
5
100
AcDbSymbolTableRecord
100
AcDbLinetypeTableRecord
  2
ByLayer
 70
     0
  3

 72
    65
 73
     0
 40
0.0
  0
LTYPE
  5
16
330
5
100
AcDbSymbolTableRecord
100
AcDbLinetypeTableRecord
  2
Continuous
 70
     0
  3
Solid line
 72
    65
 73
     0
 40
0.0
  0
LTYPE
  5
196
330
5
100
AcDbSymbolTableRecord
100
AcDbLinetypeTableRecord
  2
ISO08W100
 70
     0
  3
ISO08W100 LINE
 72
    65
 73
     4
 40
0.96
 49
0.48
 74
     0
 49
-0.12
 74
     0
 49
0.24
 74
     0
 49
-0.12
 74
     0
  0
ENDTAB
  0
TABLE
  2
LAYER
  5
2
330
0
100
AcDbSymbolTable
 70
     4
  0
LAYER
  5
10
330
2
100
AcDbSymbolTableRecord
100
AcDbLayerTableRecord
  2
0
 70
     0
 62
     7
  6
Continuous
370
    -3
390
F
347
0
  0
LAYER
  5
3C
330
2
100
AcDbSymbolTableRecord
100
AcDbLayerTableRecord
  2
_DEFAULT_CAD_LAYER
 70
     0
 62
     7
  6
Continuous
370
    18
390
F
347
0
  0
LAYER
  5
198
330
2
100
AcDbSymbolTableRecord
100
AcDbLayerTableRecord
  2
Text
 70
     0
 62
   156
  6
Continuous
370
     9
390
F
347
0
1001
CHIEFARC-LNWT
1070
    10
  0
ENDTAB
  0
TABLE
  2
STYLE
  5
3
330
0
100
AcDbSymbolTable
 70
     1
  0
STYLE
  5
11
330
3
100
AcDbSymbolTableRecord
100
AcDbTextStyleTableRecord
  2
Standard
 70
     0
 40
0.0
 41
1.0
 50
0.0
 71
     0
 42
0.2
  3
txt
  4

  0
ENDTAB
  0
TABLE
  2
VIEW
  5
6
330
0
100
AcDbSymbolTable
 70
     0
  0
ENDTAB
  0
TABLE
  2
UCS
  5
7
330
0
100
AcDbSymbolTable
 70
     0
  0
ENDTAB
  0
TABLE
  2
APPID
  5
9
330
0
100
AcDbSymbolTable
 70
     7
  0
APPID
  5
12
330
9
100
AcDbSymbolTableRecord
100
AcDbRegAppTableRecord
  2
ACAD
 70
     0
  0
APPID
  5
99
330
9
100
AcDbSymbolTableRecord
100
AcDbRegAppTableRecord
  2
CHIEFARC-LNWT
 70
     0
  0
APPID
  5
1AF
330
9
100
AcDbSymbolTableRecord
100
AcDbRegAppTableRecord
  2
CHIEFARC_RTFBINARY
 70
     0
  0
APPID
  5
1B0
330
9
100
AcDbSymbolTableRecord
100
AcDbRegAppTableRecord
  2
CHIEFARC_SIMPLE_TEXT_BINARY
 70
     0
  0
APPID
  5
1B1
330
9
100
AcDbSymbolTableRecord
100
AcDbRegAppTableRecord
  2
CHIEFARC-WIDTHEXPANDED
 70
     0
  0
APPID
  5
1B2
330
9
100
AcDbSymbolTableRecord
100
AcDbRegAppTableRecord
  2
CHIEFARC_AUTOHEIGHT
 70
     0
  0
APPID
  5
1B3
330
9
100
AcDbSymbolTableRecord
100
AcDbRegAppTableRecord
  2
CHIEFARC_AUTOWIDTH
 70
     0
  0
ENDTAB
  0
TABLE
  2
DIMSTYLE
  5
A
330
0
100
AcDbSymbolTable
 70
     2
100
AcDbDimStyleTable
  0
DIMSTYLE
105
27
330
A
100
AcDbSymbolTableRecord
100
AcDbDimStyleTableRecord
  2
Standard
 70
     0
340
11
  0
DIMSTYLE
105
3B
330
A
100
AcDbSymbolTableRecord
100
AcDbDimStyleTableRecord
  2
CHIEF
 70
     0
 41
5.0
 42
3.0
 44
3.0
 49
3.0
 73
     0
 74
     0
140
6.0
143
1.0
147
0.5
171
     0
276
     2
277
     4
285
    12
340
11
  0
ENDTAB
  0
TABLE
  2
BLOCK_RECORD
  5
1
330
0
100
AcDbSymbolTable
 70
     6
  0
BLOCK_RECORD
  5
1F
330
1
100
AcDbSymbolTableRecord
100
AcDbBlockTableRecord
  2
*Model_Space
340
22
 70
     0
280
     1
281
     0
  0
BLOCK_RECORD
  5
1B
330
1
100
AcDbSymbolTableRecord
100
AcDbBlockTableRecord
  2
*Paper_Space
340
1E
 70
     0
280
     1
281
     0
  0
BLOCK_RECORD
  5
23
330
1
100
AcDbSymbolTableRecord
100
AcDbBlockTableRecord
  2
*Paper_Space0
340
26
 70
     0
280
     1
281
     0
  0
BLOCK_RECORD
  5
97
330
1
100
AcDbSymbolTableRecord
100
AcDbBlockTableRecord
  2
block35
340
0
102
{BLKREFS
331
10D
331
10E
102
}
 70
     0
280
     1
281
     0
  0
BLOCK_RECORD
  5
98
330
1
100
AcDbSymbolTableRecord
100
AcDbBlockTableRecord
  2
block33_1
340
0
102
{BLKREFS
331
109
102
}
 70
     0
280
     1
281
     0
  0
BLOCK_RECORD
  5
10F
330
1
100
AcDbSymbolTableRecord
100
AcDbBlockTableRecord
  2
5__Bevel
340
0
102
{BLKREFS
331
179
331
17A
331
17B
102
}
 70
     0
280
     1
281
     0
  0
BLOCK_RECORD
  5
1BB
330
1
100
AcDbSymbolTableRecord
100
AcDbBlockTableRecord
  2
block34_1
340
0
102
{BLKREFS
331
1CA
331
1CB
102
}
 70
     0
280
     1
281
     0
  0
BLOCK_RECORD
  5
1C3
330
1
100
AcDbSymbolTableRecord
100
AcDbBlockTableRecord
  2
Break_Line
340
0
102
{BLKREFS
331
1C7
102
}
 70
     0
280
     1
281
     0
  0
ENDTAB
  0
ENDSEC
  0
SECTION
  2
BLOCKS
  0
BLOCK
  5
20
330
1F
100
AcDbEntity
  8
0
100
AcDbBlockBegin
  2
*Model_Space
 70
     0
 10
0.0
 20
0.0
 30
0.0
  3
*Model_Space
  1

  0
ENDBLK
  5
21
330
1F
100
AcDbEntity
  8
0
100
AcDbBlockEnd
  0
BLOCK
  5
1C
330
1B
100
AcDbEntity
 67
     1
  8
0
100
AcDbBlockBegin
  2
*Paper_Space
 70
     0
 10
0.0
 20
0.0
 30
0.0
  3
*Paper_Space
  1

  0
ENDBLK
  5
1D
330
1B
100
AcDbEntity
 67
     1
  8
0
100
AcDbBlockEnd
  0
BLOCK
  5
24
330
23
100
AcDbEntity
  8
0
100
AcDbBlockBegin
  2
*Paper_Space0
 70
     0
 10
0.0
 20
0.0
 30
0.0
  3
*Paper_Space0
  1

  0
ENDBLK
  5
25
330
23
100
AcDbEntity
  8
0
100
AcDbBlockEnd
  0
BLOCK
  5
10B
330
97
100
AcDbEntity
  8
0
100
AcDbBlockBegin
  2
block35
 70
     0
 10
0.0
 20
0.0
 30
0.0
  3
block35
  1

  0
INSERT
  5
109
330
97
100
AcDbEntity
  8
0
  6
Continuous
370
     0
100
AcDbBlockReference
  2
block33_1
 10
0.0
 20
0.0000000000001137
 30
0.0
1001
CHIEFARC-LNWT
1070
     0
  0
LINE
  5
10A
330
97
100
AcDbEntity
  8
0
100
AcDbLine
 10
-0.7509544103592134
 20
0.0
 30
0.0
 11
-0.7509544103593271
 21
23.28167144189581
 31
0.0
  0
ENDBLK
  5
10C
330
97
100
AcDbEntity
  8
0
100
AcDbBlockEnd
  0
BLOCK
  5
107
330
98
100
AcDbEntity
  8
0
100
AcDbBlockBegin
  2
block33_1
 70
     0
 10
0.0
 20
0.0
 30
0.0
  3
block33_1
  1

  0
LINE
  5
9A
330
98
100
AcDbEntity
  8
0
 62
   253
370
    13
100
AcDbLine
 10
0.7071067811865476
 20
0.0
 30
0.0
 11
1.0009544103591
 21
0.2938476291725536
 31
0.0
1001
CHIEFARC-LNWT
1070
    12
  0
LINE
  5
9B
330
98
100
AcDbEntity
  8
0
 62
   253
370
    13
100
AcDbLine
 10
0.3759544103590997
 20
0.3759544103590996
 30
0.0
 11
1.0009544103591
 21
1.0009544103591
 31
0.0
1001
CHIEFARC-LNWT
1070
    12
  0
LINE
  5
9C
330
98
100
AcDbEntity
  8
0
 62
   253
370
    13
100
AcDbLine
 10
0.3759544103590997
 20
1.083061191545647
 30
0.0
 11
1.0009544103591
 21
1.708061191545649
 31
0.0
1001
CHIEFARC-LNWT
1070
    12
  0
LINE
  5
9D
330
98
100
AcDbEntity
  8
0
 62
   253
370
    13
100
AcDbLine
 10
0.3759544103590997
 20
1.790167972732194
 30
0.0
 11
1.0009544103591
 21
2.415167972732196
 31
0.0
1001
CHIEFARC-LNWT
1070
    12
  0
LINE
  5
9E
330
98
100
AcDbEntity
  8
0
 62
   253
370
    13
100
AcDbLine
 10
0.3759544103590997
 20
2.497274753918742
 30
0.0
 11
1.0009544103591
 21
3.122274753918742
 31
0.0
1001
CHIEFARC-LNWT
1070
    12
  0
LINE
  5
9F
330
98
100
AcDbEntity
  8
0
 62
   253
370
    13
100
AcDbLine
 10
0.3759544103590997
 20
3.204381535105289
 30
0.0
 11
1.0009544103591
 21
3.829381535105288
 31
0.0
1001
CHIEFARC-LNWT
1070
    12
  0
LINE
  5
A0
330
98
100
AcDbEntity
  8
0
 62
   253
370
    13
100
AcDbLine
 10
0.3759544103590997
 20
3.911488316291837
 30
0.0
 11
1.0009544103591
 21
4.536488316291837
 31
0.0
1001
CHIEFARC-LNWT
1070
    12
  0
LINE
  5
A1
330
98
100
AcDbEntity
  8
0
 62
   253
370
    13
100
AcDbLine
 10
0.3759544103590997
 20
4.618595097478384
 30
0.0
 11
1.0009544103591
 21
5.243595097478384
 31
0.0
1001
CHIEFARC-LNWT
1070
    12
  0
LINE
  5
A2
330
98
100
AcDbEntity
  8
0
 62
   253
370
    13
100
AcDbLine
 10
0.3759544103590997
 20
5.325701878664931
 30
0.0
 11
1.0009544103591
 21
5.95070187866493
 31
0.0
1001
CHIEFARC-LNWT
1070
    12
  0
LINE
  5
A3
330
98
100
AcDbEntity
  8
0
 62
   253
370
    13
100
AcDbLine
 10
0.3759544103590997
 20
6.032808659851479
 30
0.0
 11
1.0009544103591
 21
6.657808659851479
 31
0.0
1001
CHIEFARC-LNWT
1070
    12
  0
LINE
  5
A4
330
98
100
AcDbEntity
  8
0
 62
   253
370
    13
100
AcDbLine
 10
0.3759544103590997
 20
6.739915441038026
 30
0.0
 11
1.0009544103591
 21
7.364915441038026
 31
0.0
1001
CHIEFARC-LNWT
1070
    12
  0
LINE
  5
A5
330
98
100
AcDbEntity
  8
0
 62
   253
370
    13
100
AcDbLine
 10
0.3759544103590997
 20
7.447022222224573
 30
0.0
 11
1.0009544103591
 21
8.072022222224575
 31
0.0
1001
CHIEFARC-LNWT
1070
    12
  0
LINE
  5
A6
330
98
100
AcDbEntity
  8
0
 62
   253
370
    13
100
AcDbLine
 10
0.3759544103590997
 20
8.154129003411121
 30
0.0
 11
1.0009544103591
 21
8.77912900341112
 31
0.0
1001
CHIEFARC-LNWT
1070
    12
  0
LINE
  5
A7
330
98
100
AcDbEntity
  8
0
 62
   253
370
    13
100
AcDbLine
 10
0.3759544103590997
 20
8.861235784597671
 30
0.0
 11
1.0009544103591
 21
9.486235784597667
 31
0.0
1001
CHIEFARC-LNWT
1070
    12
  0
LINE
  5
A8
330
98
100
AcDbEntity
  8
0
 62
   253
370
    13
100
AcDbLine
 10
0.3759544103590997
 20
9.568342565784217
 30
0.0
 11
1.0009544103591
 21
10.19334256578422
 31
0.0
1001
CHIEFARC-LNWT
1070
    12
  0
LINE
  5
A9
330
98
100
AcDbEntity
  8
0
 62
   253
370
    13
100
AcDbLine
 10
0.3759544103590997
 20
10.27544934697076
 30
0.0
 11
1.0009544103591
 21
10.90044934697076
 31
0.0
1001
CHIEFARC-LNWT
1070
    12
  0
LINE
  5
AA
330
98
100
AcDbEntity
  8
0
 62
   253
370
    13
100
AcDbLine
 10
0.3759544103590997
 20
10.98255612815731
 30
0.0
 11
1.0009544103591
 21
11.60755612815731
 31
0.0
1001
CHIEFARC-LNWT
1070
    12
  0
LINE
  5
AB
330
98
100
AcDbEntity
  8
0
 62
   253
370
    13
100
AcDbLine
 10
0.3759544103590997
 20
11.68966290934386
 30
0.0
 11
1.0009544103591
 21
12.31466290934386
 31
0.0
1001
CHIEFARC-LNWT
1070
    12
  0
LINE
  5
AC
330
98
100
AcDbEntity
  8
0
 62
   253
370
    13
100
AcDbLine
 10
0.3759544103590997
 20
12.39676969053041
 30
0.0
 11
1.0009544103591
 21
13.02176969053041
 31
0.0
1001
CHIEFARC-LNWT
1070
    12
  0
LINE
  5
AD
330
98
100
AcDbEntity
  8
0
 62
   253
370
    13
100
AcDbLine
 10
0.3759544103590997
 20
13.10387647171695
 30
0.0
 11
1.0009544103591
 21
13.72887647171695
 31
0.0
1001
CHIEFARC-LNWT
1070
    12
  0
LINE
  5
AE
330
98
100
AcDbEntity
  8
0
 62
   253
370
    13
100
AcDbLine
 10
0.3759544103590997
 20
13.8109832529035
 30
0.0
 11
1.0009544103591
 21
14.4359832529035
 31
0.0
1001
CHIEFARC-LNWT
1070
    12
  0
LINE
  5
AF
330
98
100
AcDbEntity
  8
0
 62
   253
370
    13
100
AcDbLine
 10
0.3759544103590997
 20
14.51809003409005
 30
0.0
 11
1.0009544103591
 21
15.14309003409005
 31
0.0
1001
CHIEFARC-LNWT
1070
    12
  0
LINE
  5
B0
330
98
100
AcDbEntity
  8
0
 62
   253
370
    13
100
AcDbLine
 10
0.3759544103590997
 20
15.2251968152766
 30
0.0
 11
1.0009544103591
 21
15.85019681527659
 31
0.0
1001
CHIEFARC-LNWT
1070
    12
  0
LINE
  5
B1
330
98
100
AcDbEntity
  8
0
 62
   253
370
    13
100
AcDbLine
 10
0.3759544103590997
 20
15.93230359646314
 30
0.0
 11
1.0009544103591
 21
16.55730359646314
 31
0.0
1001
CHIEFARC-LNWT
1070
    12
  0
LINE
  5
B2
330
98
100
AcDbEntity
  8
0
 62
   253
370
    13
100
AcDbLine
 10
0.3759544103590997
 20
16.63941037764969
 30
0.0
 11
1.0009544103591
 21
17.26441037764969
 31
0.0
1001
CHIEFARC-LNWT
1070
    12
  0
LINE
  5
B3
330
98
100
AcDbEntity
  8
0
 62
   253
370
    13
100
AcDbLine
 10
0.3759544103590997
 20
17.34651715883624
 30
0.0
 11
1.0009544103591
 21
17.97151715883624
 31
0.0
1001
CHIEFARC-LNWT
1070
    12
  0
LINE
  5
B4
330
98
100
AcDbEntity
  8
0
 62
   253
370
    13
100
AcDbLine
 10
0.3759544103590997
 20
18.05362394002278
 30
0.0
 11
1.0009544103591
 21
18.67862394002278
 31
0.0
1001
CHIEFARC-LNWT
1070
    12
  0
LINE
  5
B5
330
98
100
AcDbEntity
  8
0
 62
   253
370
    13
100
AcDbLine
 10
0.3759544103590997
 20
18.76073072120933
 30
0.0
 11
1.0009544103591
 21
19.38573072120933
 31
0.0
1001
CHIEFARC-LNWT
1070
    12
  0
LINE
  5
B6
330
98
100
AcDbEntity
  8
0
 62
   253
370
    13
100
AcDbLine
 10
0.3759544103590997
 20
19.46783750239588
 30
0.0
 11
1.0009544103591
 21
20.09283750239588
 31
0.0
1001
CHIEFARC-LNWT
1070
    12
  0
LINE
  5
B7
330
98
100
AcDbEntity
  8
0
 62
   253
370
    13
100
AcDbLine
 10
0.3759544103590997
 20
20.17494428358242
 30
0.0
 11
1.0009544103591
 21
20.79994428358242
 31
0.0
1001
CHIEFARC-LNWT
1070
    12
  0
LINE
  5
B8
330
98
100
AcDbEntity
  8
0
 62
   253
370
    13
100
AcDbLine
 10
0.3759544103590997
 20
20.88205106476897
 30
0.0
 11
1.0009544103591
 21
21.50705106476897
 31
0.0
1001
CHIEFARC-LNWT
1070
    12
  0
LINE
  5
B9
330
98
100
AcDbEntity
  8
0
 62
   253
370
    13
100
AcDbLine
 10
0.3759544103590997
 20
21.58915784595552
 30
0.0
 11
1.0009544103591
 21
22.21415784595552
 31
0.0
1001
CHIEFARC-LNWT
1070
    12
  0
LINE
  5
BA
330
98
100
AcDbEntity
  8
0
 62
   253
370
    13
100
AcDbLine
 10
0.3759544103590997
 20
22.29626462714207
 30
0.0
 11
1.0009544103591
 21
22.92126462714207
 31
0.0
1001
CHIEFARC-LNWT
1070
    12
  0
LINE
  5
BB
330
98
100
AcDbEntity
  8
0
 62
   253
370
    13
100
AcDbLine
 10
0.3759544103590997
 20
23.00337140832862
 30
0.0
 11
1.0009544103591
 21
23.62837140832862
 31
0.0
1001
CHIEFARC-LNWT
1070
    12
  0
LINE
  5
BC
330
98
100
AcDbEntity
  8
0
 62
   253
370
    13
100
AcDbLine
 10
0.3759544103590997
 20
23.71047818951516
 30
0.0
 11
0.9616679168071574
 21
24.29619169596322
 31
0.0
1001
CHIEFARC-LNWT
1070
    12
  0
LINE
  5
BD
330
98
100
AcDbEntity
  8
0
 62
   253
370
    13
100
AcDbLine
 10
-0.1802129159589508
 20
0.5268938652275965
 30
0.0
 11
0.3759544103590997
 21
1.083061191545649
 31
0.0
1001
CHIEFARC-LNWT
1070
    12
  0
LINE
  5
BE
330
98
100
AcDbEntity
  8
0
 62
   253
370
    13
100
AcDbLine
 10
-0.2493397331717009
 20
1.164873829201406
 30
0.0
 11
0.3759544103590997
 21
1.790167972732196
 31
0.0
1001
CHIEFARC-LNWT
1070
    12
  0
LINE
  5
BF
330
98
100
AcDbEntity
  8
0
 62
   253
370
    13
100
AcDbLine
 10
-0.249665611285687
 20
1.871654732273933
 30
0.0
 11
0.3759544103590997
 21
2.497274753918742
 31
0.0
1001
CHIEFARC-LNWT
1070
    12
  0
LINE
  5
C0
330
98
100
AcDbEntity
  8
0
 62
   253
370
    13
100
AcDbLine
 10
-0.2499914893996732
 20
2.578435635346521
 30
0.0
 11
0.3759544103590997
 21
3.204381535105288
 31
0.0
1001
CHIEFARC-LNWT
1070
    12
  0
LINE
  5
C1
330
98
100
AcDbEntity
  8
0
 62
   253
370
    13
100
AcDbLine
 10
-0.2503173675136593
 20
3.285216538419048
 30
0.0
 11
0.3759544103590997
 21
3.911488316291837
 31
0.0
1001
CHIEFARC-LNWT
1070
    12
  0
LINE
  5
C2
330
98
100
AcDbEntity
  8
0
 62
   253
370
    13
100
AcDbLine
 10
-0.2506432456276455
 20
3.991997441491635
 30
0.0
 11
0.3759544103590997
 21
4.618595097478384
 31
0.0
1001
CHIEFARC-LNWT
1070
    12
  0
LINE
  5
C3
330
98
100
AcDbEntity
  8
0
 62
   253
370
    13
100
AcDbLine
 10
-0.2509691237416316
 20
4.698778344564222
 30
0.0
 11
0.3759544103590997
 21
5.32570187866493
 31
0.0
1001
CHIEFARC-LNWT
1070
    12
  0
LINE
  5
C4
330
98
100
AcDbEntity
  8
0
 62
   253
370
    13
100
AcDbLine
 10
-0.2512950018556178
 20
5.40555924763681
 30
0.0
 11
0.3759544103590997
 21
6.032808659851479
 31
0.0
1001
CHIEFARC-LNWT
1070
    12
  0
LINE
  5
C5
330
98
100
AcDbEntity
  8
0
 62
   253
370
    13
100
AcDbLine
 10
-0.2516208799696039
 20
6.112340150709277
 30
0.0
 11
0.3759544103590997
 21
6.739915441038026
 31
0.0
1001
CHIEFARC-LNWT
1070
    12
  0
LINE
  5
C6
330
98
100
AcDbEntity
  8
0
 62
   253
370
    13
100
AcDbLine
 10
-0.25194675808359
 20
6.819121053781863
 30
0.0
 11
0.3759544103590997
 21
7.447022222224572
 31
0.0
1001
CHIEFARC-LNWT
1070
    12
  0
LINE
  5
C7
330
98
100
AcDbEntity
  8
0
 62
   253
370
    13
100
AcDbLine
 10
-0.2522726361975762
 20
7.525901956854452
 30
0.0
 11
0.3759544103590997
 21
8.154129003411118
 31
0.0
1001
CHIEFARC-LNWT
1070
    12
  0
LINE
  5
C8
330
98
100
AcDbEntity
  8
0
 62
   253
370
    13
100
AcDbLine
 10
-0.2525985143115623
 20
8.232682859927039
 30
0.0
 11
0.3759544103590997
 21
8.861235784597667
 31
0.0
1001
CHIEFARC-LNWT
1070
    12
  0
LINE
  5
C9
330
98
100
AcDbEntity
  8
0
 62
   253
370
    13
100
AcDbLine
 10
-0.2529243924255485
 20
8.939463762999624
 30
0.0
 11
0.3759544103590997
 21
9.568342565784217
 31
0.0
1001
CHIEFARC-LNWT
1070
    12
  0
LINE
  5
CA
330
98
100
AcDbEntity
  8
0
 62
   253
370
    13
100
AcDbLine
 10
-0.2532502705395346
 20
9.646244666072093
 30
0.0
 11
0.3759544103590997
 21
10.27544934697076
 31
0.0
1001
CHIEFARC-LNWT
1070
    12
  0
LINE
  5
CB
330
98
100
AcDbEntity
  8
0
 62
   253
370
    13
100
AcDbLine
 10
-0.2535761486535207
 20
10.35302556914468
 30
0.0
 11
0.3759544103590997
 21
10.98255612815731
 31
0.0
1001
CHIEFARC-LNWT
1070
    12
  0
LINE
  5
CC
330
98
100
AcDbEntity
  8
0
 62
   253
370
    13
100
AcDbLine
 10
-0.2539020267675069
 20
11.05980647221727
 30
0.0
 11
0.3759544103590997
 21
11.68966290934386
 31
0.0
1001
CHIEFARC-LNWT
1070
    12
  0
LINE
  5
CD
330
98
100
AcDbEntity
  8
0
 62
   253
370
    13
100
AcDbLine
 10
-0.254227904881493
 20
11.76658737528985
 30
0.0
 11
0.3759544103590997
 21
12.3967696905304
 31
0.0
1001
CHIEFARC-LNWT
1070
    12
  0
LINE
  5
CE
330
98
100
AcDbEntity
  8
0
 62
   253
370
    13
100
AcDbLine
 10
-0.2545537829954791
 20
12.47336827836232
 30
0.0
 11
0.3759544103590997
 21
13.10387647171695
 31
0.0
1001
CHIEFARC-LNWT
1070
    12
  0
LINE
  5
CF
330
98
100
AcDbEntity
  8
0
 62
   253
370
    13
100
AcDbLine
 10
-0.2548796611094653
 20
13.18014918143491
 30
0.0
 11
0.3759544103590997
 21
13.8109832529035
 31
0.0
1001
CHIEFARC-LNWT
1070
    12
  0
LINE
  5
D0
330
98
100
AcDbEntity
  8
0
 62
   253
370
    13
100
AcDbLine
 10
-0.2552055392234515
 20
13.8869300845075
 30
0.0
 11
0.3759544103590997
 21
14.51809003409005
 31
0.0
1001
CHIEFARC-LNWT
1070
    12
  0
LINE
  5
D1
330
98
100
AcDbEntity
  8
0
 62
   253
370
    13
100
AcDbLine
 10
-0.2555314173374376
 20
14.59371098758008
 30
0.0
 11
0.3759544103590997
 21
15.22519681527659
 31
0.0
1001
CHIEFARC-LNWT
1070
    12
  0
LINE
  5
D2
330
98
100
AcDbEntity
  8
0
 62
   253
370
    13
100
AcDbLine
 10
-0.2558572954514238
 20
15.30049189065267
 30
0.0
 11
0.3759544103590997
 21
15.93230359646314
 31
0.0
1001
CHIEFARC-LNWT
1070
    12
  0
LINE
  5
D3
330
98
100
AcDbEntity
  8
0
 62
   253
370
    13
100
AcDbLine
 10
-0.2561831735654099
 20
16.00727279372514
 30
0.0
 11
0.3759544103590997
 21
16.63941037764969
 31
0.0
1001
CHIEFARC-LNWT
1070
    12
  0
LINE
  5
D4
330
98
100
AcDbEntity
  8
0
 62
   253
370
    13
100
AcDbLine
 10
-0.256509051679396
 20
16.71405369679772
 30
0.0
 11
0.3759544103590997
 21
17.34651715883624
 31
0.0
1001
CHIEFARC-LNWT
1070
    12
  0
LINE
  5
D5
330
98
100
AcDbEntity
  8
0
 62
   253
370
    13
100
AcDbLine
 10
-0.2568349297933822
 20
17.42083459987031
 30
0.0
 11
0.3759544103590997
 21
18.05362394002278
 31
0.0
1001
CHIEFARC-LNWT
1070
    12
  0
LINE
  5
D6
330
98
100
AcDbEntity
  8
0
 62
   253
370
    13
100
AcDbLine
 10
-0.2571608079073683
 20
18.1276155029429
 30
0.0
 11
0.3759544103590997
 21
18.76073072120933
 31
0.0
1001
CHIEFARC-LNWT
1070
    12
  0
LINE
  5
D7
330
98
100
AcDbEntity
  8
0
 62
   253
370
    13
100
AcDbLine
 10
-0.2574866860213545
 20
18.83439640601549
 30
0.0
 11
0.3759544103590997
 21
19.46783750239588
 31
0.0
1001
CHIEFARC-LNWT
1070
    12
  0
LINE
  5
D8
330
98
100
AcDbEntity
  8
0
 62
   253
370
    13
100
AcDbLine
 10
-0.2578125641353406
 20
19.54117730908795
 30
0.0
 11
0.3759544103590997
 21
20.17494428358242
 31
0.0
1001
CHIEFARC-LNWT
1070
    12
  0
LINE
  5
D9
330
98
100
AcDbEntity
  8
0
 62
   253
370
    13
100
AcDbLine
 10
-0.2581384422493267
 20
20.24795821216054
 30
0.0
 11
0.3759544103590997
 21
20.88205106476897
 31
0.0
1001
CHIEFARC-LNWT
1070
    12
  0
LINE
  5
DA
330
98
100
AcDbEntity
  8
0
 62
   253
370
    13
100
AcDbLine
 10
-0.2584643203633129
 20
20.95473911523313
 30
0.0
 11
0.3759544103590997
 21
21.58915784595552
 31
0.0
1001
CHIEFARC-LNWT
1070
    12
  0
LINE
  5
DB
330
98
100
AcDbEntity
  8
0
 62
   253
370
    13
100
AcDbLine
 10
-0.2587901984772991
 20
21.66152001830571
 30
0.0
 11
0.3759544103590997
 21
22.29626462714207
 31
0.0
1001
CHIEFARC-LNWT
1070
    12
  0
LINE
  5
DC
330
98
100
AcDbEntity
  8
0
 62
   253
370
    13
100
AcDbLine
 10
-0.2591160765912852
 20
22.36830092137818
 30
0.0
 11
0.3759544103590997
 21
23.00337140832862
 31
0.0
1001
CHIEFARC-LNWT
1070
    12
  0
LINE
  5
DD
330
98
100
AcDbEntity
  8
0
 62
   253
370
    13
100
AcDbLine
 10
-0.2594419547052713
 20
23.07508182445077
 30
0.0
 11
0.3759544103590997
 21
23.71047818951516
 31
0.0
1001
CHIEFARC-LNWT
1070
    12
  0
LINE
  5
DE
330
98
100
AcDbEntity
  8
0
 62
   253
370
    13
100
AcDbLine
 10
-0.2597678328192575
 20
23.78186272752335
 30
0.0
 11
0.2545611356206019
 21
24.29619169596322
 31
0.0
1001
CHIEFARC-LNWT
1070
    12
  0
LINE
  5
DF
330
98
100
AcDbEntity
  8
0
 62
   253
370
    13
100
AcDbLine
 10
-0.7071067811865476
 20
0.0
 30
0.0
 11
-0.2490455896409003
 21
0.4580611915456472
 31
0.0
1001
CHIEFARC-LNWT
1070
    12
  0
LINE
  5
E0
330
98
100
AcDbEntity
  8
0
 62
   253
370
    13
100
AcDbLine
 10
-0.9990455896409003
 20
0.4151679727321947
 30
0.0
 11
-0.2493397331717009
 21
1.164873829201408
 31
0.0
1001
CHIEFARC-LNWT
1070
    12
  0
LINE
  5
E1
330
98
100
AcDbEntity
  8
0
 62
   253
370
    13
100
AcDbLine
 10
-0.9990455896409003
 20
1.122274753918742
 30
0.0
 11
-0.249665611285687
 21
1.871654732273932
 31
0.0
1001
CHIEFARC-LNWT
1070
    12
  0
LINE
  5
E2
330
98
100
AcDbEntity
  8
0
 62
   253
370
    13
100
AcDbLine
 10
-0.9990455896409003
 20
1.829381535105289
 30
0.0
 11
-0.2499914893996732
 21
2.578435635346519
 31
0.0
1001
CHIEFARC-LNWT
1070
    12
  0
LINE
  5
E3
330
98
100
AcDbEntity
  8
0
 62
   253
370
    13
100
AcDbLine
 10
-0.9990455896409003
 20
2.536488316291837
 30
0.0
 11
-0.2503173675136593
 21
3.28521653841905
 31
0.0
1001
CHIEFARC-LNWT
1070
    12
  0
LINE
  5
E4
330
98
100
AcDbEntity
  8
0
 62
   253
370
    13
100
AcDbLine
 10
-0.9990455896409003
 20
3.243595097478384
 30
0.0
 11
-0.2506432456276455
 21
3.991997441491637
 31
0.0
1001
CHIEFARC-LNWT
1070
    12
  0
LINE
  5
E5
330
98
100
AcDbEntity
  8
0
 62
   253
370
    13
100
AcDbLine
 10
-0.9990455896409003
 20
3.950701878664931
 30
0.0
 11
-0.2509691237416316
 21
4.698778344564221
 31
0.0
1001
CHIEFARC-LNWT
1070
    12
  0
LINE
  5
E6
330
98
100
AcDbEntity
  8
0
 62
   253
370
    13
100
AcDbLine
 10
-0.9990455896409003
 20
4.657808659851479
 30
0.0
 11
-0.2512950018556178
 21
5.405559247636809
 31
0.0
1001
CHIEFARC-LNWT
1070
    12
  0
LINE
  5
E7
330
98
100
AcDbEntity
  8
0
 62
   253
370
    13
100
AcDbLine
 10
-0.9990455896409003
 20
5.364915441038027
 30
0.0
 11
-0.2516208799696039
 21
6.112340150709279
 31
0.0
1001
CHIEFARC-LNWT
1070
    12
  0
LINE
  5
E8
330
98
100
AcDbEntity
  8
0
 62
   253
370
    13
100
AcDbLine
 10
-0.9990455896409003
 20
6.072022222224573
 30
0.0
 11
-0.25194675808359
 21
6.819121053781863
 31
0.0
1001
CHIEFARC-LNWT
1070
    12
  0
LINE
  5
E9
330
98
100
AcDbEntity
  8
0
 62
   253
370
    13
100
AcDbLine
 10
-0.9990455896409003
 20
6.77912900341112
 30
0.0
 11
-0.2522726361975762
 21
7.525901956854451
 31
0.0
1001
CHIEFARC-LNWT
1070
    12
  0
LINE
  5
EA
330
98
100
AcDbEntity
  8
0
 62
   253
370
    13
100
AcDbLine
 10
-0.9990455896409003
 20
7.486235784597669
 30
0.0
 11
-0.2525985143115623
 21
8.232682859927039
 31
0.0
1001
CHIEFARC-LNWT
1070
    12
  0
LINE
  5
EB
330
98
100
AcDbEntity
  8
0
 62
   253
370
    13
100
AcDbLine
 10
-0.9990455896409003
 20
8.193342565784217
 30
0.0
 11
-0.2529243924255485
 21
8.939463762999624
 31
0.0
1001
CHIEFARC-LNWT
1070
    12
  0
LINE
  5
EC
330
98
100
AcDbEntity
  8
0
 62
   253
370
    13
100
AcDbLine
 10
-0.9990455896409003
 20
8.900449346970763
 30
0.0
 11
-0.2532502705395346
 21
9.646244666072093
 31
0.0
1001
CHIEFARC-LNWT
1070
    12
  0
LINE
  5
ED
330
98
100
AcDbEntity
  8
0
 62
   253
370
    13
100
AcDbLine
 10
-0.9990455896409003
 20
9.607556128157311
 30
0.0
 11
-0.2535761486535207
 21
10.35302556914468
 31
0.0
1001
CHIEFARC-LNWT
1070
    12
  0
LINE
  5
EE
330
98
100
AcDbEntity
  8
0
 62
   253
370
    13
100
AcDbLine
 10
-0.9990455896409003
 20
10.31466290934386
 30
0.0
 11
-0.2539020267675069
 21
11.05980647221727
 31
0.0
1001
CHIEFARC-LNWT
1070
    12
  0
LINE
  5
EF
330
98
100
AcDbEntity
  8
0
 62
   253
370
    13
100
AcDbLine
 10
-0.9990455896409003
 20
11.02176969053041
 30
0.0
 11
-0.254227904881493
 21
11.76658737528985
 31
0.0
1001
CHIEFARC-LNWT
1070
    12
  0
LINE
  5
F0
330
98
100
AcDbEntity
  8
0
 62
   253
370
    13
100
AcDbLine
 10
-0.9990455896409003
 20
11.72887647171695
 30
0.0
 11
-0.2545537829954791
 21
12.47336827836232
 31
0.0
1001
CHIEFARC-LNWT
1070
    12
  0
LINE
  5
F1
330
98
100
AcDbEntity
  8
0
 62
   253
370
    13
100
AcDbLine
 10
-0.9990455896409003
 20
12.4359832529035
 30
0.0
 11
-0.2548796611094653
 21
13.18014918143491
 31
0.0
1001
CHIEFARC-LNWT
1070
    12
  0
LINE
  5
F2
330
98
100
AcDbEntity
  8
0
 62
   253
370
    13
100
AcDbLine
 10
-0.9990455896409003
 20
13.14309003409005
 30
0.0
 11
-0.2552055392234515
 21
13.8869300845075
 31
0.0
1001
CHIEFARC-LNWT
1070
    12
  0
LINE
  5
F3
330
98
100
AcDbEntity
  8
0
 62
   253
370
    13
100
AcDbLine
 10
-0.9990455896409003
 20
13.8501968152766
 30
0.0
 11
-0.2555314173374376
 21
14.59371098758008
 31
0.0
1001
CHIEFARC-LNWT
1070
    12
  0
LINE
  5
F4
330
98
100
AcDbEntity
  8
0
 62
   253
370
    13
100
AcDbLine
 10
-0.9990455896409003
 20
14.55730359646314
 30
0.0
 11
-0.2558572954514238
 21
15.30049189065267
 31
0.0
1001
CHIEFARC-LNWT
1070
    12
  0
LINE
  5
F5
330
98
100
AcDbEntity
  8
0
 62
   253
370
    13
100
AcDbLine
 10
-0.9990455896409003
 20
15.26441037764969
 30
0.0
 11
-0.2561831735654099
 21
16.00727279372514
 31
0.0
1001
CHIEFARC-LNWT
1070
    12
  0
LINE
  5
F6
330
98
100
AcDbEntity
  8
0
 62
   253
370
    13
100
AcDbLine
 10
-0.9990455896409003
 20
15.97151715883624
 30
0.0
 11
-0.256509051679396
 21
16.71405369679772
 31
0.0
1001
CHIEFARC-LNWT
1070
    12
  0
LINE
  5
F7
330
98
100
AcDbEntity
  8
0
 62
   253
370
    13
100
AcDbLine
 10
-0.9990455896409003
 20
16.67862394002278
 30
0.0
 11
-0.2568349297933822
 21
17.42083459987031
 31
0.0
1001
CHIEFARC-LNWT
1070
    12
  0
LINE
  5
F8
330
98
100
AcDbEntity
  8
0
 62
   253
370
    13
100
AcDbLine
 10
-0.9990455896409003
 20
17.38573072120933
 30
0.0
 11
-0.2571608079073683
 21
18.1276155029429
 31
0.0
1001
CHIEFARC-LNWT
1070
    12
  0
LINE
  5
F9
330
98
100
AcDbEntity
  8
0
 62
   253
370
    13
100
AcDbLine
 10
-0.9990455896409003
 20
18.09283750239588
 30
0.0
 11
-0.2574866860213545
 21
18.83439640601549
 31
0.0
1001
CHIEFARC-LNWT
1070
    12
  0
LINE
  5
FA
330
98
100
AcDbEntity
  8
0
 62
   253
370
    13
100
AcDbLine
 10
-0.9990455896409003
 20
18.79994428358242
 30
0.0
 11
-0.2578125641353406
 21
19.54117730908795
 31
0.0
1001
CHIEFARC-LNWT
1070
    12
  0
LINE
  5
FB
330
98
100
AcDbEntity
  8
0
 62
   253
370
    13
100
AcDbLine
 10
-0.9990455896409003
 20
19.50705106476898
 30
0.0
 11
-0.2581384422493267
 21
20.24795821216054
 31
0.0
1001
CHIEFARC-LNWT
1070
    12
  0
LINE
  5
FC
330
98
100
AcDbEntity
  8
0
 62
   253
370
    13
100
AcDbLine
 10
-0.9990455896409003
 20
20.21415784595552
 30
0.0
 11
-0.2584643203633129
 21
20.95473911523313
 31
0.0
1001
CHIEFARC-LNWT
1070
    12
  0
LINE
  5
FD
330
98
100
AcDbEntity
  8
0
 62
   253
370
    13
100
AcDbLine
 10
-0.9990455896409003
 20
20.92126462714207
 30
0.0
 11
-0.2587901984772991
 21
21.66152001830572
 31
0.0
1001
CHIEFARC-LNWT
1070
    12
  0
LINE
  5
FE
330
98
100
AcDbEntity
  8
0
 62
   253
370
    13
100
AcDbLine
 10
-0.9990455896409003
 20
21.62837140832862
 30
0.0
 11
-0.2591160765912852
 21
22.36830092137818
 31
0.0
1001
CHIEFARC-LNWT
1070
    12
  0
LINE
  5
FF
330
98
100
AcDbEntity
  8
0
 62
   253
370
    13
100
AcDbLine
 10
-0.9990455896409003
 20
22.33547818951516
 30
0.0
 11
-0.2594419547052713
 21
23.07508182445077
 31
0.0
1001
CHIEFARC-LNWT
1070
    12
  0
LINE
  5
100
330
98
100
AcDbEntity
  8
0
 62
   253
370
    13
100
AcDbLine
 10
-0.9990455896409003
 20
23.04258497070171
 30
0.0
 11
-0.2597678328192575
 21
23.78186272752336
 31
0.0
1001
CHIEFARC-LNWT
1070
    12
  0
LINE
  5
101
330
98
100
AcDbEntity
  8
0
 62
   253
370
    13
100
AcDbLine
 10
-0.9990455896409003
 20
23.74969175188826
 30
0.0
 11
-0.4525456455659417
 21
24.29619169596322
 31
0.0
1001
CHIEFARC-LNWT
1070
    12
  0
LINE
  5
102
330
98
100
AcDbEntity
  8
0
 62
   253
370
    13
100
AcDbLine
 10
0.2545611356205997
 20
24.29619169596322
 30
0.0
 11
0.3759544103590997
 21
24.41758497070172
 31
0.0
1001
CHIEFARC-LNWT
1070
    12
  0
LINE
  5
103
330
98
100
AcDbEntity
  8
0
 62
   253
370
    13
100
AcDbLine
 10
-0.2556901452733156
 20
24.49304719625585
 30
0.0
 11
0.047457422198783
 21
24.79619476372795
 31
0.0
1001
CHIEFARC-LNWT
1070
    12
  0
LWPOLYLINE
  5
104
330
98
100
AcDbEntity
  8
0
 62
     7
370
    18
100
AcDbPolyline
 90
       12
 70
     1
 43
0.0
 10
-0.2600049764000687
 20
24.29619169596322
 10
-0.2490455896409003
 20
24.79619169596322
 10
0.3759544103590998
 20
24.79619816251795
 10
0.3759544103590997
 20
24.29619169596322
 10
1.0009544103591
 20
24.29619169596322
 10
1.000954410359098
 20
0.0
 10
0.3759544103590997
 20
0.0
 10
0.3759544103590998
 20
0.5266787210156281
 10
-0.2490455896409002
 20
0.5269204920189168
 10
-0.2490455896409003
 20
0.0
 10
-0.9990455896409003
 20
0.0
 10
-0.9990455896408988
 20
24.29619169596322
  0
LWPOLYLINE
  5
105
330
98
100
AcDbEntity
  8
0
100
AcDbPolyline
 90
       12
 70
     1
 43
0.0
 10
1.000954410358986
 20
0.0
 10
0.375954410358986
 20
0.0
 10
0.3759544103589861
 20
0.5266787210155144
 10
-0.249045589641014
 20
0.5269204920189583
 10
-0.2490455896410141
 20
0.0
 10
-0.999045589641014
 20
0.0
 10
-0.999045589641014
 20
23.29619169596322
 10
-0.249045589641014
 20
23.29619169596322
 10
-0.2490455896410139
 20
24.79619169596322
 10
0.3759544103589861
 20
24.79619816251795
 10
0.375954410358986
 20
24.29619169596322
 10
1.000954410358986
 20
24.29619169596322
  0
LWPOLYLINE
  5
106
330
98
100
AcDbEntity
  8
0
100
AcDbPolyline
 90
        3
 70
     0
 43
0.0
 10
-0.9990455896409003
 20
23.29619169596322
 10
-1.000954410359213
 20
24.29590717846838
 10
-0.2553157086342708
 20
24.29590717846838
  0
ENDBLK
  5
108
330
98
100
AcDbEntity
  8
0
100
AcDbBlockEnd
  0
BLOCK
  5
177
330
10F
100
AcDbEntity
  8
0
100
AcDbBlockBegin
  2
5__Bevel
 70
     0
 10
0.0
 20
0.0
 30
0.0
  3
5__Bevel
  1

  0
LINE
  5
110
330
10F
100
AcDbEntity
  8
0
 62
   254
370
     0
100
AcDbLine
 10
0.0042772373097917
 20
0.0042772373097917
 30
0.0
 11
0.1124631756624808
 21
0.1124631756624801
 31
0.0
  0
LINE
  5
111
330
10F
100
AcDbEntity
  8
0
 62
   254
370
     0
100
AcDbLine
 10
-0.1653644444656727
 20
0.0114122508309642
 30
0.0
 11
0.1232903519467153
 21
0.3000670472433509
 31
0.0
  0
LINE
  5
112
330
10F
100
AcDbEntity
  8
0
 62
   254
370
     0
100
AcDbLine
 10
-0.3350061262411371
 20
0.0185472643521367
 30
0.0
 11
0.1341175282309498
 21
0.4876709188242234
 31
0.0
  0
LINE
  5
113
330
10F
100
AcDbEntity
  8
0
 62
   254
370
     0
100
AcDbLine
 10
-0.3425688386792394
 20
0.1877612472106712
 30
0.0
 11
0.1449447045151842
 21
0.6752747904050946
 31
0.0
  0
LINE
  5
114
330
10F
100
AcDbEntity
  8
0
 62
   254
370
     0
100
AcDbLine
 10
-0.3149227076312004
 20
0.3921840735553471
 30
0.0
 11
0.1557718807994187
 21
0.8628786619859663
 31
0.0
  0
LINE
  5
115
330
10F
100
AcDbEntity
  8
0
 62
   254
370
     0
100
AcDbLine
 10
-0.2872765765831615
 20
0.596606899900023
 30
0.0
 11
0.1665990570836531
 21
1.050482533566837
 31
0.0
  0
LINE
  5
116
330
10F
100
AcDbEntity
  8
0
 62
   254
370
     0
100
AcDbLine
 10
-0.2596304455351226
 20
0.8010297262446989
 30
0.0
 11
0.1774262333678876
 21
1.238086405147708
 31
0.0
  0
LINE
  5
117
330
10F
100
AcDbEntity
  8
0
 62
   254
370
     0
100
AcDbLine
 10
-0.2319843144870837
 20
1.005452552589374
 30
0.0
 11
0.1882534096521221
 21
1.42569027672858
 31
0.0
  0
LINE
  5
118
330
10F
100
AcDbEntity
  8
0
 62
   254
370
     0
100
AcDbLine
 10
-0.2043381834390449
 20
1.20987537893405
 30
0.0
 11
0.1990805859363565
 21
1.613294148309451
 31
0.0
  0
LINE
  5
119
330
10F
100
AcDbEntity
  8
0
 62
   254
370
     0
100
AcDbLine
 10
-0.1766920523910059
 20
1.414298205278726
 30
0.0
 11
0.209907762220591
 21
1.800898019890323
 31
0.0
  0
LINE
  5
11A
330
10F
100
AcDbEntity
  8
0
 62
   254
370
     0
100
AcDbLine
 10
-0.149045921342967
 20
1.618721031623402
 30
0.0
 11
0.2207349385048254
 21
1.988501891471194
 31
0.0
  0
LINE
  5
11B
330
10F
100
AcDbEntity
  8
0
 62
   254
370
     0
100
AcDbLine
 10
-0.1213997902949281
 20
1.823143857968078
 30
0.0
 11
0.2315621147890599
 21
2.176105763052065
 31
0.0
  0
LINE
  5
11C
330
10F
100
AcDbEntity
  8
0
 62
   254
370
     0
100
AcDbLine
 10
-0.0937536592468892
 20
2.027566684312753
 30
0.0
 11
0.2423892910732943
 21
2.363709634632937
 31
0.0
  0
LINE
  5
11D
330
10F
100
AcDbEntity
  8
0
 62
   254
370
     0
100
AcDbLine
 10
-0.0661075281988504
 20
2.231989510657429
 30
0.0
 11
0.2532164673575288
 21
2.551313506213808
 31
0.0
  0
LINE
  5
11E
330
10F
100
AcDbEntity
  8
0
 62
   254
370
     0
100
AcDbLine
 10
-0.0384613971508115
 20
2.436412337002105
 30
0.0
 11
0.2640436436417632
 21
2.73891737779468
 31
0.0
  0
LINE
  5
11F
330
10F
100
AcDbEntity
  8
0
 62
   254
370
     0
100
AcDbLine
 10
-0.0108152661027724
 20
2.640835163346781
 30
0.0
 11
0.2748708199259977
 21
2.926521249375551
 31
0.0
  0
LINE
  5
120
330
10F
100
AcDbEntity
  8
0
 62
   254
370
     0
100
AcDbLine
 10
0.0168308649452665
 20
2.845257989691457
 30
0.0
 11
0.2856979962102321
 21
3.114125120956421
 31
0.0
  0
LINE
  5
121
330
10F
100
AcDbEntity
  8
0
 62
   254
370
     0
100
AcDbLine
 10
0.0444769959933054
 20
3.049680816036133
 30
0.0
 11
0.2965251724944666
 21
3.301728992537293
 31
0.0
  0
LINE
  5
122
330
10F
100
AcDbEntity
  8
0
 62
   254
370
     0
100
AcDbLine
 10
0.0721231270413442
 20
3.254103642380808
 30
0.0
 11
0.307352348778701
 21
3.489332864118165
 31
0.0
  0
LINE
  5
123
330
10F
100
AcDbEntity
  8
0
 62
   254
370
     0
100
AcDbLine
 10
0.0997692580893831
 20
3.458526468725484
 30
0.0
 11
0.3181795250629355
 21
3.676936735699035
 31
0.0
  0
LINE
  5
124
330
10F
100
AcDbEntity
  8
0
 62
   254
370
     0
100
AcDbLine
 10
0.1274153891374221
 20
3.662949295070161
 30
0.0
 11
0.32900670134717
 21
3.864540607279908
 31
0.0
  0
LINE
  5
125
330
10F
100
AcDbEntity
  8
0
 62
   254
370
     0
100
AcDbLine
 10
0.155061520185461
 20
3.867372121414836
 30
0.0
 11
0.3398338776314044
 21
4.052144478860779
 31
0.0
  0
LINE
  5
126
330
10F
100
AcDbEntity
  8
0
 62
   254
370
     0
100
AcDbLine
 10
0.1827076512334997
 20
4.071794947759511
 30
0.0
 11
0.3506610539156388
 21
4.23974835044165
 31
0.0
  0
LINE
  5
127
330
10F
100
AcDbEntity
  8
0
 62
   254
370
     0
100
AcDbLine
 10
0.2103537822815387
 20
4.276217774104187
 30
0.0
 11
0.3614882301998733
 21
4.427352222022521
 31
0.0
  0
LINE
  5
128
330
10F
100
AcDbEntity
  8
0
 62
   254
370
     0
100
AcDbLine
 10
0.2379999133295777
 20
4.480640600448863
 30
0.0
 11
0.2550669655642125
 21
4.497707652683497
 31
0.0
  0
LWPOLYLINE
  5
129
330
10F
100
AcDbEntity
  8
0
 62
    35
370
    18
100
AcDbPolyline
 90
        4
 70
     1
 43
0.0
 10
0.3652811206104085
 20
4.493072120435472
 10
0.1059725919761111
 20
0.0000000000000009
 10
-0.3652811206104111
 20
0.0198206099822774
 10
0.2403915357817129
 20
4.498324891258532
  0
LINE
  5
12A
330
10F
100
AcDbEntity
  8
0
 62
   254
370
     0
100
AcDbLine
 10
0.0889901082806594
 20
3.624524014213397
 30
0.0
 11
0.1070564785704349
 21
3.642590384503173
 31
0.0
  0
LINE
  5
12B
330
10F
100
AcDbEntity
  8
0
 62
   254
370
     0
100
AcDbLine
 10
-0.080651573494805
 20
3.63165902773457
 30
0.0
 11
0.1178836548546693
 21
3.830194256084043
 31
0.0
  0
LINE
  5
12C
330
10F
100
AcDbEntity
  8
0
 62
   254
370
     0
100
AcDbLine
 10
-0.2502932552702689
 20
3.638794041255742
 30
0.0
 11
0.1287108311389037
 21
4.017798127664913
 31
0.0
  0
LINE
  5
12D
330
10F
100
AcDbEntity
  8
0
 62
   254
370
     0
100
AcDbLine
 10
-0.3563743085838354
 20
3.709489683238812
 30
0.0
 11
0.1395380074231383
 21
4.205401999245787
 31
0.0
  0
LINE
  5
12E
330
10F
100
AcDbEntity
  8
0
 62
   254
370
     0
100
AcDbLine
 10
-0.3287281775357965
 20
3.913912509583488
 30
0.0
 11
0.1503651837073727
 21
4.393005870826657
 31
0.0
  0
LINE
  5
12F
330
10F
100
AcDbEntity
  8
0
 62
   254
370
     0
100
AcDbLine
 10
-0.3010820464877575
 20
4.118335335928164
 30
0.0
 11
0.1611923599916072
 21
4.58060974240753
 31
0.0
  0
LINE
  5
130
330
10F
100
AcDbEntity
  8
0
 62
   254
370
     0
100
AcDbLine
 10
-0.2734359154397186
 20
4.32275816227284
 30
0.0
 11
0.1720195362758417
 21
4.768213613988401
 31
0.0
  0
LINE
  5
131
330
10F
100
AcDbEntity
  8
0
 62
   254
370
     0
100
AcDbLine
 10
-0.2457897843916798
 20
4.527180988617515
 30
0.0
 11
0.182846712560076
 21
4.95581748556927
 31
0.0
  0
LINE
  5
132
330
10F
100
AcDbEntity
  8
0
 62
   254
370
     0
100
AcDbLine
 10
-0.2181436533436409
 20
4.731603814962192
 30
0.0
 11
0.1936738888443105
 21
5.143421357150143
 31
0.0
  0
LINE
  5
133
330
10F
100
AcDbEntity
  8
0
 62
   254
370
     0
100
AcDbLine
 10
-0.190497522295602
 20
4.936026641306867
 30
0.0
 11
0.2045010651285449
 21
5.331025228731013
 31
0.0
  0
LINE
  5
134
330
10F
100
AcDbEntity
  8
0
 62
   254
370
     0
100
AcDbLine
 10
-0.162851391247563
 20
5.140449467651544
 30
0.0
 11
0.2153282414127794
 21
5.518629100311886
 31
0.0
  0
LINE
  5
135
330
10F
100
AcDbEntity
  8
0
 62
   254
370
     0
100
AcDbLine
 10
-0.1352052601995241
 20
5.34487229399622
 30
0.0
 11
0.2261554176970139
 21
5.706232971892756
 31
0.0
  0
LINE
  5
136
330
10F
100
AcDbEntity
  8
0
 62
   254
370
     0
100
AcDbLine
 10
-0.1075591291514852
 20
5.549295120340894
 30
0.0
 11
0.2369825939812483
 21
5.893836843473627
 31
0.0
  0
LINE
  5
137
330
10F
100
AcDbEntity
  8
0
 62
   254
370
     0
100
AcDbLine
 10
-0.0799129981034464
 20
5.75371794668557
 30
0.0
 11
0.2478097702654828
 21
6.0814407150545
 31
0.0
  0
LINE
  5
138
330
10F
100
AcDbEntity
  8
0
 62
   254
370
     0
100
AcDbLine
 10
-0.0522668670554075
 20
5.958140773030246
 30
0.0
 11
0.2586369465497172
 21
6.26904458663537
 31
0.0
  0
LINE
  5
139
330
10F
100
AcDbEntity
  8
0
 62
   254
370
     0
100
AcDbLine
 10
-0.0246207360073684
 20
6.162563599374923
 30
0.0
 11
0.2694641228339517
 21
6.456648458216242
 31
0.0
  0
LINE
  5
13A
330
10F
100
AcDbEntity
  8
0
 62
   254
370
     0
100
AcDbLine
 10
0.0030253950406705
 20
6.366986425719599
 30
0.0
 11
0.2802912991181862
 21
6.644252329797114
 31
0.0
  0
LINE
  5
13B
330
10F
100
AcDbEntity
  8
0
 62
   254
370
     0
100
AcDbLine
 10
0.0306715260887093
 20
6.571409252064274
 30
0.0
 11
0.2911184754024206
 21
6.831856201377985
 31
0.0
  0
LINE
  5
13C
330
10F
100
AcDbEntity
  8
0
 62
   254
370
     0
100
AcDbLine
 10
0.0583176571367481
 20
6.775832078408949
 30
0.0
 11
0.301945651686655
 21
7.019460072958855
 31
0.0
  0
LINE
  5
13D
330
10F
100
AcDbEntity
  8
0
 62
   254
370
     0
100
AcDbLine
 10
0.085963788184787
 20
6.980254904753625
 30
0.0
 11
0.3127728279708895
 21
7.207063944539726
 31
0.0
  0
LINE
  5
13E
330
10F
100
AcDbEntity
  8
0
 62
   254
370
     0
100
AcDbLine
 10
0.1136099192328262
 20
7.184677731098303
 30
0.0
 11
0.323600004255124
 21
7.394667816120599
 31
0.0
  0
LINE
  5
13F
330
10F
100
AcDbEntity
  8
0
 62
   254
370
     0
100
AcDbLine
 10
0.141256050280865
 20
7.389100557442977
 30
0.0
 11
0.3344271805393584
 21
7.58227168770147
 31
0.0
  0
LINE
  5
140
330
10F
100
AcDbEntity
  8
0
 62
   254
370
     0
100
AcDbLine
 10
0.1689021813289038
 20
7.593523383787653
 30
0.0
 11
0.3452543568235928
 21
7.769875559282341
 31
0.0
  0
LINE
  5
141
330
10F
100
AcDbEntity
  8
0
 62
   254
370
     0
100
AcDbLine
 10
0.1965483123769427
 20
7.797946210132328
 30
0.0
 11
0.3560815331078274
 21
7.957479430863213
 31
0.0
  0
LINE
  5
142
330
10F
100
AcDbEntity
  8
0
 62
   254
370
     0
100
AcDbLine
 10
0.2241944434249815
 20
8.002369036477003
 30
0.0
 11
0.3397798365350795
 21
8.117954429587101
 31
0.0
  0
LWPOLYLINE
  5
143
330
10F
100
AcDbEntity
  8
0
 62
    35
370
    18
100
AcDbPolyline
 90
        4
 70
     1
 43
0.0
 10
0.3652811206104085
 20
8.116881862958543
 10
0.1059725919761111
 20
3.623809742523073
 10
-0.3652811206104111
 20
3.643630352505349
 10
0.2403915357817129
 20
8.122134633781604
  0
LINE
  5
144
330
10F
100
AcDbEntity
  8
0
 62
   254
370
     0
100
AcDbLine
 10
-0.0258202461256985
 20
10.75755816696915
 30
0.0
 11
0.1143841113397115
 21
10.89776252443456
 31
0.0
  0
LINE
  5
145
330
10F
100
AcDbEntity
  8
0
 62
   254
370
     0
100
AcDbLine
 10
-0.1954619279011641
 20
10.76469318049032
 30
0.0
 11
0.125211287623946
 21
11.08536639601543
 31
0.0
  0
LINE
  5
146
330
10F
100
AcDbEntity
  8
0
 62
   254
370
     0
100
AcDbLine
 10
-0.3651036096766302
 20
10.77182819401149
 30
0.0
 11
0.1360384639081805
 21
11.2729702675963
 31
0.0
  0
LINE
  5
147
330
10F
100
AcDbEntity
  8
0
 62
   254
370
     0
100
AcDbLine
 10
-0.3376639181280797
 20
10.97604458085668
 30
0.0
 11
0.1468656401924147
 21
11.46057413917717
 31
0.0
  0
LINE
  5
148
330
10F
100
AcDbEntity
  8
0
 62
   254
370
     0
100
AcDbLine
 10
-0.3100177870800405
 20
11.18046740720136
 30
0.0
 11
0.1576928164766494
 21
11.64817801075805
 31
0.0
  0
LINE
  5
149
330
10F
100
AcDbEntity
  8
0
 62
   254
370
     0
100
AcDbLine
 10
-0.282371656032002
 20
11.38489023354603
 30
0.0
 11
0.1685199927608838
 21
11.83578188233892
 31
0.0
  0
LINE
  5
14A
330
10F
100
AcDbEntity
  8
0
 62
   254
370
     0
100
AcDbLine
 10
-0.2547255249839629
 20
11.58931305989071
 30
0.0
 11
0.1793471690451183
 21
12.02338575391979
 31
0.0
  0
LINE
  5
14B
330
10F
100
AcDbEntity
  8
0
 62
   254
370
     0
100
AcDbLine
 10
-0.2270793939359238
 20
11.79373588623539
 30
0.0
 11
0.1901743453293527
 21
12.21098962550066
 31
0.0
  0
LINE
  5
14C
330
10F
100
AcDbEntity
  8
0
 62
   254
370
     0
100
AcDbLine
 10
-0.1994332628878852
 20
11.99815871258006
 30
0.0
 11
0.201001521613587
 21
12.39859349708153
 31
0.0
  0
LINE
  5
14D
330
10F
100
AcDbEntity
  8
0
 62
   254
370
     0
100
AcDbLine
 10
-0.171787131839846
 20
12.20258153892474
 30
0.0
 11
0.2118286978978217
 21
12.5861973686624
 31
0.0
  0
LINE
  5
14E
330
10F
100
AcDbEntity
  8
0
 62
   254
370
     0
100
AcDbLine
 10
-0.1441410007918076
 20
12.40700436526941
 30
0.0
 11
0.222655874182056
 21
12.77380124024327
 31
0.0
  0
LINE
  5
14F
330
10F
100
AcDbEntity
  8
0
 62
   254
370
     0
100
AcDbLine
 10
-0.1164948697437685
 20
12.61142719161409
 30
0.0
 11
0.2334830504662905
 21
12.96140511182415
 31
0.0
  0
LINE
  5
150
330
10F
100
AcDbEntity
  8
0
 62
   254
370
     0
100
AcDbLine
 10
-0.0888487386957293
 20
12.81585001795876
 30
0.0
 11
0.244310226750525
 21
13.14900898340502
 31
0.0
  0
LINE
  5
151
330
10F
100
AcDbEntity
  8
0
 62
   254
370
     0
100
AcDbLine
 10
-0.0612026076476908
 20
13.02027284430344
 30
0.0
 11
0.2551374030347593
 21
13.33661285498589
 31
0.0
  0
LINE
  5
152
330
10F
100
AcDbEntity
  8
0
 62
   254
370
     0
100
AcDbLine
 10
-0.0335564765996514
 20
13.22469567064812
 30
0.0
 11
0.2659645793189939
 21
13.52421672656676
 31
0.0
  0
LINE
  5
153
330
10F
100
AcDbEntity
  8
0
 62
   254
370
     0
100
AcDbLine
 10
-0.0059103455516131
 20
13.42911849699279
 30
0.0
 11
0.2767917556032283
 21
13.71182059814763
 31
0.0
  0
LINE
  5
154
330
10F
100
AcDbEntity
  8
0
 62
   254
370
     0
100
AcDbLine
 10
0.021735785496426
 20
13.63354132333746
 30
0.0
 11
0.2876189318874628
 21
13.8994244697285
 31
0.0
  0
LINE
  5
155
330
10F
100
AcDbEntity
  8
0
 62
   254
370
     0
100
AcDbLine
 10
0.0493819165444653
 20
13.83796414968214
 30
0.0
 11
0.2984461081716973
 21
14.08702834130937
 31
0.0
  0
LINE
  5
156
330
10F
100
AcDbEntity
  8
0
 62
   254
370
     0
100
AcDbLine
 10
0.0770280475925038
 20
14.04238697602682
 30
0.0
 11
0.3092732844559316
 21
14.27463221289024
 31
0.0
  0
LINE
  5
157
330
10F
100
AcDbEntity
  8
0
 62
   254
370
     0
100
AcDbLine
 10
0.1046741786405431
 20
14.24680980237149
 30
0.0
 11
0.3201004607401662
 21
14.46223608447112
 31
0.0
  0
LINE
  5
158
330
10F
100
AcDbEntity
  8
0
 62
   254
370
     0
100
AcDbLine
 10
0.1323203096885816
 20
14.45123262871617
 30
0.0
 11
0.3309276370244005
 21
14.64983995605199
 31
0.0
  0
LINE
  5
159
330
10F
100
AcDbEntity
  8
0
 62
   254
370
     0
100
AcDbLine
 10
0.1599664407366206
 20
14.65565545506084
 30
0.0
 11
0.3417548133086349
 21
14.83744382763286
 31
0.0
  0
LINE
  5
15A
330
10F
100
AcDbEntity
  8
0
 62
   254
370
     0
100
AcDbLine
 10
0.1876125717846598
 20
14.86007828140552
 30
0.0
 11
0.3525819895928696
 21
15.02504769921373
 31
0.0
  0
LINE
  5
15B
330
10F
100
AcDbEntity
  8
0
 62
   254
370
     0
100
AcDbLine
 10
0.2152587028326982
 20
15.06450110775019
 30
0.0
 11
0.3634091658771039
 21
15.2126515707946
 31
0.0
  0
LWPOLYLINE
  5
15C
330
10F
100
AcDbEntity
  8
0
 62
    35
370
    18
100
AcDbPolyline
 90
        4
 70
     1
 43
0.0
 10
0.3652811206104085
 20
15.24508717045359
 10
0.1059725919761111
 20
10.75201505001812
 10
-0.3652811206104111
 20
10.77183566000039
 10
0.2403915357817129
 20
15.25033994127665
  0
LINE
  5
15D
330
10F
100
AcDbEntity
  8
0
 62
   254
370
     0
100
AcDbLine
 10
0.059108564678896
 20
7.130176376544371
 30
0.0
 11
0.1089636321475231
 21
7.180031444012998
 31
0.0
  0
LINE
  5
15E
330
10F
100
AcDbEntity
  8
0
 62
   254
370
     0
100
AcDbLine
 10
-0.1105331170965679
 20
7.137311390065544
 30
0.0
 11
0.1197908084317575
 21
7.367635315593868
 31
0.0
  0
LINE
  5
15F
330
10F
100
AcDbEntity
  8
0
 62
   254
370
     0
100
AcDbLine
 10
-0.2801747988720323
 20
7.144446403586716
 30
0.0
 11
0.1306179847159919
 21
7.555239187174739
 31
0.0
  0
LINE
  5
160
330
10F
100
AcDbEntity
  8
0
 62
   254
370
     0
100
AcDbLine
 10
-0.3515045792715225
 20
7.249893318483863
 30
0.0
 11
0.1414451610002264
 21
7.742843058755611
 31
0.0
  0
LINE
  5
161
330
10F
100
AcDbEntity
  8
0
 62
   254
370
     0
100
AcDbLine
 10
-0.3238584482234837
 20
7.454316144828538
 30
0.0
 11
0.1522723372844609
 21
7.930446930336483
 31
0.0
  0
LINE
  5
162
330
10F
100
AcDbEntity
  8
0
 62
   254
370
     0
100
AcDbLine
 10
-0.2962123171754446
 20
7.658738971173215
 30
0.0
 11
0.1630995135686954
 21
8.118050801917356
 31
0.0
  0
LINE
  5
163
330
10F
100
AcDbEntity
  8
0
 62
   254
370
     0
100
AcDbLine
 10
-0.2685661861274059
 20
7.863161797517889
 30
0.0
 11
0.1739266898529298
 21
8.305654673498225
 31
0.0
  0
LINE
  5
164
330
10F
100
AcDbEntity
  8
0
 62
   254
370
     0
100
AcDbLine
 10
-0.2409200550793669
 20
8.067584623862565
 30
0.0
 11
0.1847538661371642
 21
8.493258545079097
 31
0.0
  0
LINE
  5
165
330
10F
100
AcDbEntity
  8
0
 62
   254
370
     0
100
AcDbLine
 10
-0.2132739240313278
 20
8.272007450207244
 30
0.0
 11
0.1955810424213987
 21
8.680862416659968
 31
0.0
  0
LINE
  5
166
330
10F
100
AcDbEntity
  8
0
 62
   254
370
     0
100
AcDbLine
 10
-0.1856277929832892
 20
8.476430276551916
 30
0.0
 11
0.2064082187056331
 21
8.868466288240839
 31
0.0
  0
LINE
  5
167
330
10F
100
AcDbEntity
  8
0
 62
   254
370
     0
100
AcDbLine
 10
-0.1579816619352502
 20
8.680853102896593
 30
0.0
 11
0.2172353949898676
 21
9.056070159821711
 31
0.0
  0
LINE
  5
168
330
10F
100
AcDbEntity
  8
0
 62
   254
370
     0
100
AcDbLine
 10
-0.1303355308872114
 20
8.885275929241267
 30
0.0
 11
0.228062571274102
 21
9.243674031402582
 31
0.0
  0
LINE
  5
169
330
10F
100
AcDbEntity
  8
0
 62
   254
370
     0
100
AcDbLine
 10
-0.1026893998391724
 20
9.089698755585944
 30
0.0
 11
0.2388897475583364
 21
9.431277902983453
 31
0.0
  0
LINE
  5
16A
330
10F
100
AcDbEntity
  8
0
 62
   254
370
     0
100
AcDbLine
 10
-0.0750432687911333
 20
9.294121581930622
 30
0.0
 11
0.249716923842571
 21
9.618881774564326
 31
0.0
  0
LINE
  5
16B
330
10F
100
AcDbEntity
  8
0
 62
   254
370
     0
100
AcDbLine
 10
-0.0473971377430947
 20
9.498544408275295
 30
0.0
 11
0.2605441001268053
 21
9.806485646145195
 31
0.0
  0
LINE
  5
16C
330
10F
100
AcDbEntity
  8
0
 62
   254
370
     0
100
AcDbLine
 10
-0.0197510066950555
 20
9.702967234619972
 30
0.0
 11
0.2713712764110399
 21
9.994089517726067
 31
0.0
  0
LINE
  5
16D
330
10F
100
AcDbEntity
  8
0
 62
   254
370
     0
100
AcDbLine
 10
0.007895124352983
 20
9.907390060964646
 30
0.0
 11
0.2821984526952742
 21
10.18169338930694
 31
0.0
  0
LINE
  5
16E
330
10F
100
AcDbEntity
  8
0
 62
   254
370
     0
100
AcDbLine
 10
0.0355412554010221
 20
10.11181288730932
 30
0.0
 11
0.2930256289795087
 21
10.36929726088781
 31
0.0
  0
LINE
  5
16F
330
10F
100
AcDbEntity
  8
0
 62
   254
370
     0
100
AcDbLine
 10
0.0631873864490613
 20
10.316235713654
 30
0.0
 11
0.3038528052637433
 21
10.55690113246868
 31
0.0
  0
LINE
  5
170
330
10F
100
AcDbEntity
  8
0
 62
   254
370
     0
100
AcDbLine
 10
0.0908335174970999
 20
10.52065853999867
 30
0.0
 11
0.3146799815479776
 21
10.74450500404955
 31
0.0
  0
LINE
  5
171
330
10F
100
AcDbEntity
  8
0
 62
   254
370
     0
100
AcDbLine
 10
0.118479648545139
 20
10.72508136634335
 30
0.0
 11
0.3255071578322122
 21
10.93210887563042
 31
0.0
  0
LINE
  5
172
330
10F
100
AcDbEntity
  8
0
 62
   254
370
     0
100
AcDbLine
 10
0.1461257795931775
 20
10.92950419268803
 30
0.0
 11
0.3363343341164465
 21
11.11971274721129
 31
0.0
  0
LINE
  5
173
330
10F
100
AcDbEntity
  8
0
 62
   254
370
     0
100
AcDbLine
 10
0.1737719106412166
 20
11.1339270190327
 30
0.0
 11
0.347161510400681
 21
11.30731661879217
 31
0.0
  0
LINE
  5
174
330
10F
100
AcDbEntity
  8
0
 62
   254
370
     0
100
AcDbLine
 10
0.2014180416892559
 20
11.33834984537738
 30
0.0
 11
0.3579886866849155
 21
11.49492049037304
 31
0.0
  0
LINE
  5
175
330
10F
100
AcDbEntity
  8
0
 62
   254
370
     0
100
AcDbLine
 10
0.2290641727372944
 20
11.54277267172205
 30
0.0
 11
0.3098982929333173
 21
11.62360679191807
 31
0.0
  0
LWPOLYLINE
  5
176
330
10F
100
AcDbEntity
  8
0
 62
    35
370
    18
100
AcDbPolyline
 90
        4
 70
     1
 43
0.0
 10
0.3652811206104085
 20
11.62127742793052
 10
0.1059725919761111
 20
7.128205307495045
 10
-0.3652811206104111
 20
7.148025917477321
 10
0.2403915357817129
 20
11.62653019875358
  0
ENDBLK
  5
178
330
10F
100
AcDbEntity
  8
0
100
AcDbBlockEnd
  0
BLOCK
  5
1C8
330
1BB
100
AcDbEntity
  8
0
100
AcDbBlockBegin
  2
block34_1
 70
     0
 10
0.0
 20
0.0
 30
0.0
  3
block34_1
  1

  0
SOLID
  5
1BC
330
1BB
100
AcDbEntity
  8
0
 62
     7
100
AcDbTrace
 10
-2.155392080373076
 20
11.38833587986255
 30
0.0
 11
-0.9138608348533808
 21
9.977601040287482
 31
0.0
 12
-2.155392080373076
 22
11.38833587986255
 32
0.0
 13
-3.542131957776974
 23
9.999144246213064
 33
0.0
  0
SOLID
  5
1BD
330
1BB
100
AcDbEntity
  8
0
 62
     7
100
AcDbTrace
 10
-0.9138608348533808
 20
9.977601040287482
 30
0.0
 11
-2.155392080373076
 21
11.38833587986255
 31
0.0
 12
2.304085137550487
 22
20.99095895392065
 32
0.0
 13
-2.142131501653921
 23
20.03351407291211
 33
0.0
  0
SOLID
  5
1BE
330
1BB
100
AcDbEntity
  8
0
 62
     7
100
AcDbTrace
 10
-0.9138608348533808
 20
9.977601040287482
 30
0.0
 11
2.304085137550487
 21
20.99095895392065
 31
0.0
 12
0.9418057358673197
 22
10.95530735246791
 32
0.0
 13
2.315424389813984
 23
12.32892600641469
 33
0.0
  0
SOLID
  5
1BF
330
1BB
100
AcDbEntity
  8
0
 62
     7
100
AcDbTrace
 10
2.286042172617272
 20
9.691872013008947
 30
0.0
 11
0.9418057358673195
 21
10.95530735246791
 31
0.0
 12
2.286042172617272
 22
9.691872013008947
 32
0.0
 13
3.542131957777087
 23
10.94796179816876
 33
0.0
  0
SOLID
  5
1C0
330
1BB
100
AcDbEntity
  8
0
 62
     7
100
AcDbTrace
 10
0.9418057358673195
 20
10.95530735246791
 30
0.0
 11
2.286042172617272
 21
9.691872013008947
 31
0.0
 12
-2.161731025513177
 22
0.0040937347157524
 32
0.0
 13
2.309433580608243
 23
0.959624880378783
 33
0.0
  0
SOLID
  5
1C1
330
1BB
100
AcDbEntity
  8
0
 62
     7
100
AcDbTrace
 10
0.9418057358673195
 20
10.95530735246791
 30
0.0
 11
-2.161731025513177
 21
0.0040937347157524
 31
0.0
 12
-0.9138608348533808
 22
9.977601040287482
 32
0.0
 13
-2.163366778538375
 23
8.728095096602488
 33
0.0
  0
LWPOLYLINE
  5
1C2
330
1BB
100
AcDbEntity
  8
0
 62
     7
100
AcDbPolyline
 90
       12
 70
     1
 43
0.0
 10
2.304085137550487
 20
20.99095895392065
 10
2.315424389813984
 20
12.32892600641469
 10
0.9418057358673195
 20
10.95530735246791
 10
3.542131957777087
 20
10.94796179816876
 10
2.286042172617272
 20
9.691872013008947
 10
2.309433580608243
 20
0.959624880378783
 10
-2.161731025513177
 20
0.0040937347157524
 10
-2.163366778538375
 20
8.728095096602488
 10
-0.9138608348533808
 20
9.977601040287482
 10
-3.542131957776974
 20
9.999144246213064
 10
-2.155392080373076
 20
11.38833587986255
 10
-2.142131501653921
 20
20.03351407291211
  0
INSERT
  5
1C7
330
1BB
100
AcDbEntity
  8
0
  6
Continuous
370
     0
100
AcDbBlockReference
  2
Break_Line
 10
-2.231451014468348
 20
0.0
 30
0.0
1001
CHIEFARC-LNWT
1070
     0
  0
ENDBLK
  5
1C9
330
1BB
100
AcDbEntity
  8
0
100
AcDbBlockEnd
  0
BLOCK
  5
1C5
330
1C3
100
AcDbEntity
  8
0
100
AcDbBlockBegin
  2
Break_Line
 70
     0
 10
0.0
 20
0.0
 30
0.0
  3
Break_Line
  1

  0
LWPOLYLINE
  5
1C4
330
1C3
100
AcDbEntity
  8
0
100
AcDbPolyline
 90
        6
 70
     0
 43
0.0
 10
0.0758531737247452
 20
20.02936230674345
 10
0.0758531737247452
 20
11.37178725632516
 10
-1.309784784366492
 20
9.986149298233912
 10
1.309784784366492
 20
9.986149298233954
 10
0.0726287886091581
 20
8.74899330247662
 10
0.0726287886091583
 20
0.0000000000000284
  0
ENDBLK
  5
1C6
330
1C3
100
AcDbEntity
  8
0
100
AcDbBlockEnd
  0
ENDSEC
  0
SECTION
  2
ENTITIES
  0
ARC
  5
3D
330
1F
100
AcDbEntity
  8
_DEFAULT_CAD_LAYER
100
AcDbCircle
 10
509.5218425828353
 20
626.607313193918
 30
0.0
 40
0.793043187275219
100
AcDbArc
 50
270.0
 51
90.0
  0
ARC
  5
3E
330
1F
100
AcDbEntity
  8
_DEFAULT_CAD_LAYER
100
AcDbCircle
 10
505.8869261629496
 20
625.4177484130051
 30
0.0
 40
0.793043187275219
100
AcDbArc
 50
90.0
 51
270.0
  0
LINE
  5
3F
330
1F
100
AcDbEntity
  8
_DEFAULT_CAD_LAYER
100
AcDbLine
 10
509.5218425828353
 20
625.8142700066428
 30
0.0
 11
505.8869261629496
 21
626.2107916002803
 31
0.0
  0
ARC
  5
40
330
1F
100
AcDbEntity
  8
_DEFAULT_CAD_LAYER
100
AcDbCircle
 10
509.5218425828353
 20
624.2281836320923
 30
0.0
 40
0.793043187275219
100
AcDbArc
 50
270.0
 51
90.0
  0
LINE
  5
41
330
1F
100
AcDbEntity
  8
_DEFAULT_CAD_LAYER
100
AcDbLine
 10
505.8869261629496
 20
624.6247052257299
 30
0.0
 11
509.5218425828353
 21
625.0212268193676
 31
0.0
  0
ARC
  5
42
330
1F
100
AcDbEntity
  8
_DEFAULT_CAD_LAYER
100
AcDbCircle
 10
505.8869261629496
 20
623.0386188511795
 30
0.0
 40
0.793043187275219
100
AcDbArc
 50
90.0
 51
270.0
  0
LINE
  5
43
330
1F
100
AcDbEntity
  8
_DEFAULT_CAD_LAYER
100
AcDbLine
 10
509.5218425828353
 20
623.4351404448171
 30
0.0
 11
505.8869261629496
 21
623.8316620384547
 31
0.0
  0
ARC
  5
44
330
1F
100
AcDbEntity
  8
_DEFAULT_CAD_LAYER
100
AcDbCircle
 10
509.5218425828353
 20
621.8490540702667
 30
0.0
 40
0.793043187275219
100
AcDbArc
 50
270.0
 51
90.0
  0
LINE
  5
45
330
1F
100
AcDbEntity
  8
_DEFAULT_CAD_LAYER
100
AcDbLine
 10
505.8869261629496
 20
622.2455756639043
 30
0.0
 11
509.5218425828353
 21
622.6420972575419
 31
0.0
  0
ARC
  5
46
330
1F
100
AcDbEntity
  8
_DEFAULT_CAD_LAYER
100
AcDbCircle
 10
505.8869261629496
 20
620.6594892893538
 30
0.0
 40
0.793043187275219
100
AcDbArc
 50
90.0
 51
270.0
  0
LINE
  5
47
330
1F
100
AcDbEntity
  8
_DEFAULT_CAD_LAYER
100
AcDbLine
 10
509.5218425828353
 20
621.0560108829915
 30
0.0
 11
505.8869261629496
 21
621.452532476629
 31
0.0
  0
ARC
  5
48
330
1F
100
AcDbEntity
  8
_DEFAULT_CAD_LAYER
100
AcDbCircle
 10
509.5218425828353
 20
619.4699245084411
 30
0.0
 40
0.793043187275219
100
AcDbArc
 50
270.0
 51
90.0
  0
LINE
  5
49
330
1F
100
AcDbEntity
  8
_DEFAULT_CAD_LAYER
100
AcDbLine
 10
505.8869261629496
 20
619.8664461020786
 30
0.0
 11
509.5218425828353
 21
620.2629676957163
 31
0.0
  0
ARC
  5
4A
330
1F
100
AcDbEntity
  8
_DEFAULT_CAD_LAYER
100
AcDbCircle
 10
505.8869261629496
 20
618.2803597275282
 30
0.0
 40
0.793043187275219
100
AcDbArc
 50
90.0
 51
270.0
  0
LINE
  5
4B
330
1F
100
AcDbEntity
  8
_DEFAULT_CAD_LAYER
100
AcDbLine
 10
509.5218425828353
 20
618.6768813211658
 30
0.0
 11
505.8869261629496
 21
619.0734029148034
 31
0.0
  0
ARC
  5
4C
330
1F
100
AcDbEntity
  8
_DEFAULT_CAD_LAYER
100
AcDbCircle
 10
509.5218425828353
 20
617.0907949466153
 30
0.0
 40
0.793043187275219
100
AcDbArc
 50
270.0
 51
90.0
  0
LINE
  5
4D
330
1F
100
AcDbEntity
  8
_DEFAULT_CAD_LAYER
100
AcDbLine
 10
505.8869261629496
 20
617.487316540253
 30
0.0
 11
509.5218425828353
 21
617.8838381338905
 31
0.0
  0
ARC
  5
4E
330
1F
100
AcDbEntity
  8
_DEFAULT_CAD_LAYER
100
AcDbCircle
 10
505.8869261629496
 20
615.9012301657025
 30
0.0
 40
0.793043187275219
100
AcDbArc
 50
90.0
 51
270.0
  0
LINE
  5
4F
330
1F
100
AcDbEntity
  8
_DEFAULT_CAD_LAYER
100
AcDbLine
 10
509.5218425828353
 20
616.2977517593401
 30
0.0
 11
505.8869261629496
 21
616.6942733529778
 31
0.0
  0
ARC
  5
50
330
1F
100
AcDbEntity
  8
_DEFAULT_CAD_LAYER
100
AcDbCircle
 10
509.5218425828353
 20
614.7116653847897
 30
0.0
 40
0.793043187275219
100
AcDbArc
 50
270.0
 51
90.0
  0
LINE
  5
51
330
1F
100
AcDbEntity
  8
_DEFAULT_CAD_LAYER
100
AcDbLine
 10
505.8869261629496
 20
615.1081869784273
 30
0.0
 11
509.5218425828353
 21
615.5047085720649
 31
0.0
  0
ARC
  5
52
330
1F
100
AcDbEntity
  8
_DEFAULT_CAD_LAYER
100
AcDbCircle
 10
505.8869261629496
 20
613.5221006038769
 30
0.0
 40
0.793043187275219
100
AcDbArc
 50
90.0
 51
270.0
  0
LINE
  5
53
330
1F
100
AcDbEntity
  8
_DEFAULT_CAD_LAYER
100
AcDbLine
 10
509.5218425828353
 20
613.9186221975145
 30
0.0
 11
505.8869261629496
 21
614.3151437911521
 31
0.0
  0
ARC
  5
54
330
1F
100
AcDbEntity
  8
_DEFAULT_CAD_LAYER
100
AcDbCircle
 10
509.5218425828353
 20
612.332535822964
 30
0.0
 40
0.793043187275219
100
AcDbArc
 50
270.0
 51
90.0
  0
LINE
  5
55
330
1F
100
AcDbEntity
  8
_DEFAULT_CAD_LAYER
100
AcDbLine
 10
505.8869261629496
 20
612.7290574166017
 30
0.0
 11
509.5218425828353
 21
613.1255790102392
 31
0.0
  0
ARC
  5
56
330
1F
100
AcDbEntity
  8
_DEFAULT_CAD_LAYER
100
AcDbCircle
 10
505.8869261629496
 20
611.1429710420512
 30
0.0
 40
0.793043187275219
100
AcDbArc
 50
90.0
 51
270.0
  0
LINE
  5
57
330
1F
100
AcDbEntity
  8
_DEFAULT_CAD_LAYER
100
AcDbLine
 10
509.5218425828353
 20
611.5394926356888
 30
0.0
 11
505.8869261629496
 21
611.9360142293265
 31
0.0
  0
ARC
  5
58
330
1F
100
AcDbEntity
  8
_DEFAULT_CAD_LAYER
100
AcDbCircle
 10
509.5218425828353
 20
609.9534062611384
 30
0.0
 40
0.793043187275219
100
AcDbArc
 50
270.0
 51
90.0
  0
LINE
  5
59
330
1F
100
AcDbEntity
  8
_DEFAULT_CAD_LAYER
100
AcDbLine
 10
505.8869261629496
 20
610.349927854776
 30
0.0
 11
509.5218425828353
 21
610.7464494484136
 31
0.0
  0
ARC
  5
5A
330
1F
100
AcDbEntity
  8
_DEFAULT_CAD_LAYER
100
AcDbCircle
 10
505.8869261629496
 20
608.7638414802256
 30
0.0
 40
0.793043187275219
100
AcDbArc
 50
90.0
 51
270.0
  0
LINE
  5
5B
330
1F
100
AcDbEntity
  8
_DEFAULT_CAD_LAYER
100
AcDbLine
 10
509.5218425828353
 20
609.1603630738632
 30
0.0
 11
505.8869261629496
 21
609.5568846675008
 31
0.0
  0
ARC
  5
5C
330
1F
100
AcDbEntity
  8
_DEFAULT_CAD_LAYER
100
AcDbCircle
 10
509.5218425828353
 20
607.5742766993127
 30
0.0
 40
0.793043187275219
100
AcDbArc
 50
270.0
 51
90.0
  0
LINE
  5
5D
330
1F
100
AcDbEntity
  8
_DEFAULT_CAD_LAYER
100
AcDbLine
 10
505.8869261629496
 20
607.9707982929503
 30
0.0
 11
509.5218425828353
 21
608.3673198865879
 31
0.0
  0
ARC
  5
5E
330
1F
100
AcDbEntity
  8
_DEFAULT_CAD_LAYER
100
AcDbCircle
 10
505.8869261629496
 20
606.3847119184
 30
0.0
 40
0.793043187275219
100
AcDbArc
 50
90.0
 51
270.0
  0
LINE
  5
5F
330
1F
100
AcDbEntity
  8
_DEFAULT_CAD_LAYER
100
AcDbLine
 10
509.5218425828353
 20
606.7812335120375
 30
0.0
 11
505.8869261629496
 21
607.1777551056751
 31
0.0
  0
ARC
  5
60
330
1F
100
AcDbEntity
  8
_DEFAULT_CAD_LAYER
100
AcDbCircle
 10
509.5218425828353
 20
605.1951471374871
 30
0.0
 40
0.793043187275219
100
AcDbArc
 50
270.0
 51
90.0
  0
LINE
  5
61
330
1F
100
AcDbEntity
  8
_DEFAULT_CAD_LAYER
100
AcDbLine
 10
505.8869261629496
 20
605.5916687311246
 30
0.0
 11
509.5218425828353
 21
605.9881903247623
 31
0.0
  0
ARC
  5
62
330
1F
100
AcDbEntity
  8
_DEFAULT_CAD_LAYER
100
AcDbCircle
 10
505.8869261629496
 20
604.0055823565742
 30
0.0
 40
0.793043187275219
100
AcDbArc
 50
90.0
 51
270.0
  0
LINE
  5
63
330
1F
100
AcDbEntity
  8
_DEFAULT_CAD_LAYER
100
AcDbLine
 10
509.5218425828353
 20
604.4021039502119
 30
0.0
 11
505.8869261629496
 21
604.7986255438494
 31
0.0
  0
ARC
  5
64
330
1F
100
AcDbEntity
  8
_DEFAULT_CAD_LAYER
100
AcDbCircle
 10
509.5218425828353
 20
602.8160175756614
 30
0.0
 40
0.793043187275219
100
AcDbArc
 50
270.0
 51
90.0
  0
LINE
  5
65
330
1F
100
AcDbEntity
  8
_DEFAULT_CAD_LAYER
100
AcDbLine
 10
505.8869261629496
 20
603.212539169299
 30
0.0
 11
509.5218425828353
 21
603.6090607629367
 31
0.0
  0
ARC
  5
66
330
1F
100
AcDbEntity
  8
_DEFAULT_CAD_LAYER
100
AcDbCircle
 10
505.8869261629496
 20
601.6264527947486
 30
0.0
 40
0.793043187275219
100
AcDbArc
 50
90.0
 51
270.0
  0
LINE
  5
67
330
1F
100
AcDbEntity
  8
_DEFAULT_CAD_LAYER
100
AcDbLine
 10
509.5218425828353
 20
602.0229743883862
 30
0.0
 11
505.8869261629496
 21
602.4194959820238
 31
0.0
  0
ARC
  5
68
330
1F
100
AcDbEntity
  8
_DEFAULT_CAD_LAYER
100
AcDbCircle
 10
509.5218425828353
 20
600.4368880138358
 30
0.0
 40
0.793043187275219
100
AcDbArc
 50
270.0
 51
90.0
  0
LINE
  5
69
330
1F
100
AcDbEntity
  8
_DEFAULT_CAD_LAYER
100
AcDbLine
 10
505.8869261629496
 20
600.8334096074734
 30
0.0
 11
509.5218425828353
 21
601.229931201111
 31
0.0
  0
ARC
  5
6A
330
1F
100
AcDbEntity
  8
_DEFAULT_CAD_LAYER
100
AcDbCircle
 10
505.8869261629496
 20
599.2473232329229
 30
0.0
 40
0.793043187275219
100
AcDbArc
 50
90.0
 51
270.0
  0
LINE
  5
6B
330
1F
100
AcDbEntity
  8
_DEFAULT_CAD_LAYER
100
AcDbLine
 10
509.5218425828353
 20
599.6438448265606
 30
0.0
 11
505.8869261629496
 21
600.0403664201981
 31
0.0
  0
ARC
  5
6C
330
1F
100
AcDbEntity
  8
_DEFAULT_CAD_LAYER
100
AcDbCircle
 10
509.5218425828353
 20
598.0577584520101
 30
0.0
 40
0.793043187275219
100
AcDbArc
 50
270.0
 51
90.0
  0
LINE
  5
6D
330
1F
100
AcDbEntity
  8
_DEFAULT_CAD_LAYER
100
AcDbLine
 10
505.8869261629496
 20
598.4542800456477
 30
0.0
 11
509.5218425828353
 21
598.8508016392854
 31
0.0
  0
ARC
  5
6E
330
1F
100
AcDbEntity
  8
_DEFAULT_CAD_LAYER
100
AcDbCircle
 10
505.8869261629496
 20
596.8681936710973
 30
0.0
 40
0.793043187275219
100
AcDbArc
 50
90.0
 51
270.0
  0
LINE
  5
6F
330
1F
100
AcDbEntity
  8
_DEFAULT_CAD_LAYER
100
AcDbLine
 10
509.5218425828353
 20
597.2647152647348
 30
0.0
 11
505.8869261629496
 21
597.6612368583725
 31
0.0
  0
ARC
  5
70
330
1F
100
AcDbEntity
  8
_DEFAULT_CAD_LAYER
100
AcDbCircle
 10
509.5218425828353
 20
595.6786288901844
 30
0.0
 40
0.793043187275219
100
AcDbArc
 50
270.0
 51
90.0
  0
LINE
  5
71
330
1F
100
AcDbEntity
  8
_DEFAULT_CAD_LAYER
100
AcDbLine
 10
505.8869261629496
 20
596.0751504838221
 30
0.0
 11
509.5218425828353
 21
596.4716720774596
 31
0.0
  0
ARC
  5
72
330
1F
100
AcDbEntity
  8
_DEFAULT_CAD_LAYER
100
AcDbCircle
 10
505.8869261629496
 20
594.4890641092716
 30
0.0
 40
0.793043187275219
100
AcDbArc
 50
90.0
 51
270.0
  0
LINE
  5
73
330
1F
100
AcDbEntity
  8
_DEFAULT_CAD_LAYER
100
AcDbLine
 10
509.5218425828353
 20
594.8855857029092
 30
0.0
 11
505.8869261629496
 21
595.2821072965469
 31
0.0
  0
ARC
  5
74
330
1F
100
AcDbEntity
  8
_DEFAULT_CAD_LAYER
100
AcDbCircle
 10
509.5218425828353
 20
593.2994993283588
 30
0.0
 40
0.793043187275219
100
AcDbArc
 50
270.0
 51
90.0
  0
LINE
  5
75
330
1F
100
AcDbEntity
  8
_DEFAULT_CAD_LAYER
100
AcDbLine
 10
505.8869261629496
 20
593.6960209219964
 30
0.0
 11
509.5218425828353
 21
594.092542515634
 31
0.0
  0
ARC
  5
76
330
1F
100
AcDbEntity
  8
_DEFAULT_CAD_LAYER
100
AcDbCircle
 10
505.8869261629496
 20
592.109934547446
 30
0.0
 40
0.793043187275219
100
AcDbArc
 50
90.0
 51
270.0
  0
LINE
  5
77
330
1F
100
AcDbEntity
  8
_DEFAULT_CAD_LAYER
100
AcDbLine
 10
509.5218425828353
 20
592.5064561410836
 30
0.0
 11
505.8869261629496
 21
592.9029777347212
 31
0.0
  0
ARC
  5
78
330
1F
100
AcDbEntity
  8
_DEFAULT_CAD_LAYER
100
AcDbCircle
 10
509.5218425828353
 20
590.9203697665331
 30
0.0
 40
0.793043187275219
100
AcDbArc
 50
270.0
 51
90.0
  0
LINE
  5
79
330
1F
100
AcDbEntity
  8
_DEFAULT_CAD_LAYER
100
AcDbLine
 10
505.8869261629496
 20
591.3168913601708
 30
0.0
 11
509.5218425828353
 21
591.7134129538083
 31
0.0
  0
ARC
  5
7A
330
1F
100
AcDbEntity
  8
_DEFAULT_CAD_LAYER
100
AcDbCircle
 10
505.8869261629496
 20
589.7308049856204
 30
0.0
 40
0.793043187275219
100
AcDbArc
 50
90.0
 51
270.0
  0
LINE
  5
7B
330
1F
100
AcDbEntity
  8
_DEFAULT_CAD_LAYER
100
AcDbLine
 10
509.5218425828353
 20
590.1273265792579
 30
0.0
 11
505.8869261629496
 21
590.5238481728956
 31
0.0
  0
ARC
  5
7C
330
1F
100
AcDbEntity
  8
_DEFAULT_CAD_LAYER
100
AcDbCircle
 10
509.5218425828353
 20
588.5412402047075
 30
0.0
 40
0.793043187275219
100
AcDbArc
 50
270.0
 51
90.0
  0
LINE
  5
7D
330
1F
100
AcDbEntity
  8
_DEFAULT_CAD_LAYER
100
AcDbLine
 10
505.8869261629496
 20
588.937761798345
 30
0.0
 11
509.5218425828353
 21
589.3342833919827
 31
0.0
  0
ARC
  5
7E
330
1F
100
AcDbEntity
  8
_DEFAULT_CAD_LAYER
100
AcDbCircle
 10
505.8869261629496
 20
587.3516754237946
 30
0.0
 40
0.793043187275219
100
AcDbArc
 50
90.0
 51
270.0
  0
LINE
  5
7F
330
1F
100
AcDbEntity
  8
_DEFAULT_CAD_LAYER
100
AcDbLine
 10
509.5218425828353
 20
587.7481970174323
 30
0.0
 11
505.8869261629496
 21
588.1447186110698
 31
0.0
  0
ARC
  5
80
330
1F
100
AcDbEntity
  8
_DEFAULT_CAD_LAYER
100
AcDbCircle
 10
509.5218425828353
 20
586.1621106428818
 30
0.0
 40
0.793043187275219
100
AcDbArc
 50
270.0
 51
90.0
  0
LINE
  5
81
330
1F
100
AcDbEntity
  8
_DEFAULT_CAD_LAYER
100
AcDbLine
 10
505.8869261629496
 20
586.5586322365194
 30
0.0
 11
509.5218425828353
 21
586.9551538301571
 31
0.0
  0
ARC
  5
82
330
1F
100
AcDbEntity
  8
_DEFAULT_CAD_LAYER
100
AcDbCircle
 10
505.8869261629496
 20
584.972545861969
 30
0.0
 40
0.793043187275219
100
AcDbArc
 50
90.0
 51
270.0
  0
LINE
  5
83
330
1F
100
AcDbEntity
  8
_DEFAULT_CAD_LAYER
100
AcDbLine
 10
509.5218425828353
 20
585.3690674556066
 30
0.0
 11
505.8869261629496
 21
585.7655890492442
 31
0.0
  0
ARC
  5
84
330
1F
100
AcDbEntity
  8
_DEFAULT_CAD_LAYER
100
AcDbCircle
 10
509.5218425828353
 20
583.7829810810562
 30
0.0
 40
0.793043187275219
100
AcDbArc
 50
270.0
 51
90.0
  0
LINE
  5
85
330
1F
100
AcDbEntity
  8
_DEFAULT_CAD_LAYER
100
AcDbLine
 10
505.8869261629496
 20
584.1795026746938
 30
0.0
 11
509.5218425828353
 21
584.5760242683314
 31
0.0
  0
ARC
  5
86
330
1F
100
AcDbEntity
  8
_DEFAULT_CAD_LAYER
100
AcDbCircle
 10
505.8869261629496
 20
582.5934163001433
 30
0.0
 40
0.793043187275219
100
AcDbArc
 50
90.0
 51
270.0
  0
LINE
  5
87
330
1F
100
AcDbEntity
  8
_DEFAULT_CAD_LAYER
100
AcDbLine
 10
509.5218425828353
 20
582.989937893781
 30
0.0
 11
505.8869261629496
 21
583.3864594874185
 31
0.0
  0
ARC
  5
88
330
1F
100
AcDbEntity
  8
_DEFAULT_CAD_LAYER
100
AcDbCircle
 10
509.5218425828353
 20
581.4038515192306
 30
0.0
 40
0.793043187275219
100
AcDbArc
 50
270.0
 51
90.0
  0
LINE
  5
89
330
1F
100
AcDbEntity
  8
_DEFAULT_CAD_LAYER
100
AcDbLine
 10
505.8869261629496
 20
581.8003731128681
 30
0.0
 11
509.5218425828353
 21
582.1968947065058
 31
0.0
  0
ARC
  5
8A
330
1F
100
AcDbEntity
  8
_DEFAULT_CAD_LAYER
100
AcDbCircle
 10
505.8869261629496
 20
580.2142867383177
 30
0.0
 40
0.793043187275219
100
AcDbArc
 50
90.0
 51
270.0
  0
LINE
  5
8B
330
1F
100
AcDbEntity
  8
_DEFAULT_CAD_LAYER
100
AcDbLine
 10
509.5218425828353
 20
580.6108083319552
 30
0.0
 11
505.8869261629496
 21
581.0073299255929
 31
0.0
  0
LINE
  5
8C
330
1F
100
AcDbEntity
  8
_DEFAULT_CAD_LAYER
100
AcDbLine
 10
510.4522805804905
 20
627.6873841718618
 30
0.0
 11
510.4522805804905
 21
579.2838487406626
 31
0.0
  0
LINE
  5
8D
330
1F
100
AcDbEntity
  8
_DEFAULT_CAD_LAYER
100
AcDbLine
 10
510.4522805804905
 20
579.2838487406626
 30
0.0
 11
504.9564881652945
 21
579.2838487406626
 31
0.0
  0
LINE
  5
8E
330
1F
100
AcDbEntity
  8
_DEFAULT_CAD_LAYER
100
AcDbLine
 10
504.9564881652945
 20
579.2838487406626
 30
0.0
 11
504.9564881652945
 21
627.6873841718618
 31
0.0
  0
LINE
  5
8F
330
1F
100
AcDbEntity
  8
_DEFAULT_CAD_LAYER
100
AcDbLine
 10
504.9564881652945
 20
627.6873841718618
 30
0.0
 11
510.4522805804905
 21
627.6873841718618
 31
0.0
  0
SOLID
  5
90
330
1F
100
AcDbEntity
  8
_DEFAULT_CAD_LAYER
 62
     7
100
AcDbTrace
 10
510.4522805804904
 20
625.1510008700373
 30
0.0
 11
510.9240880751055
 21
625.1510008700373
 31
0.0
 12
510.4522805804904
 22
579.4065701642025
 32
0.0
 13
510.9240880751055
 23
579.4065701642025
 33
0.0
  0
LWPOLYLINE
  5
91
330
1F
100
AcDbEntity
  8
_DEFAULT_CAD_LAYER
 62
   136
100
AcDbPolyline
 90
        4
 70
     1
 43
0.0
 10
510.9240880751055
 20
625.1510008700373
 10
510.9240880751055
 20
579.4065701642025
 10
510.4522805804904
 20
579.4065701642025
 10
510.4522805804904
 20
625.1510008700373
  0
SOLID
  5
92
330
1F
100
AcDbEntity
  8
_DEFAULT_CAD_LAYER
 62
    33
100
AcDbTrace
 10
504.9522805804904
 20
625.012053871726
 30
0.0
 11
504.9522805804904
 21
579.2838487406626
 31
0.0
 12
504.4522805804904
 22
625.012053871726
 32
0.0
 13
504.4522805804904
 23
579.2838487406626
 33
0.0
  0
LINE
  5
93
330
1F
100
AcDbEntity
  8
_DEFAULT_CAD_LAYER
 62
     7
100
AcDbLine
 10
504.9522805804904
 20
625.012053871726
 30
0.0
 11
504.9522805804904
 21
579.2838487406626
 31
0.0
  0
LINE
  5
94
330
1F
100
AcDbEntity
  8
_DEFAULT_CAD_LAYER
 62
     7
100
AcDbLine
 10
504.9522805804904
 20
579.2838487406626
 30
0.0
 11
504.4522805804904
 21
579.2838487406626
 31
0.0
  0
LINE
  5
95
330
1F
100
AcDbEntity
  8
_DEFAULT_CAD_LAYER
 62
     7
100
AcDbLine
 10
504.4522805804904
 20
579.2838487406626
 30
0.0
 11
504.4522805804904
 21
625.012053871726
 31
0.0
  0
LINE
  5
96
330
1F
100
AcDbEntity
  8
_DEFAULT_CAD_LAYER
 62
     7
100
AcDbLine
 10
504.4522805804904
 20
625.012053871726
 30
0.0
 11
504.9522805804904
 21
625.012053871726
 31
0.0
  0
INSERT
  5
10D
330
1F
100
AcDbEntity
  8
_DEFAULT_CAD_LAYER
  6
Continuous
370
     0
100
AcDbBlockReference
  2
block35
 10
503.4330772470664
 20
578.9861058978732
 30
0.0
 41
-1.0
1001
CHIEFARC-LNWT
1070
     0
  0
INSERT
  5
10E
330
1F
100
AcDbEntity
  8
_DEFAULT_CAD_LAYER
100
AcDbBlockReference
  2
block35
 10
503.4330772470664
 20
602.9861058978732
 30
0.0
 41
-1.0
  0
INSERT
  5
179
330
1F
100
AcDbEntity
  8
_DEFAULT_CAD_LAYER
  6
Continuous
370
     0
100
AcDbBlockReference
  2
5__Bevel
 10
502.08699945988
 20
579.3847435126052
 30
0.0
1001
CHIEFARC-LNWT
1070
     0
  0
INSERT
  5
17A
330
1F
100
AcDbEntity
  8
_DEFAULT_CAD_LAYER
100
AcDbBlockReference
  2
5__Bevel
 10
502.0869994598801
 20
593.7739421803365
 30
0.0
  0
INSERT
  5
17B
330
1F
100
AcDbEntity
  8
_DEFAULT_CAD_LAYER
100
AcDbBlockReference
  2
5__Bevel
 10
502.0869994598801
 20
608.5821140631949
 30
0.0
  0
LINE
  5
17C
330
1F
100
AcDbEntity
  8
_DEFAULT_CAD_LAYER
 62
   254
370
     0
100
AcDbLine
 10
502.0759324676127
 20
622.991192050511
 30
0.0
 11
502.2415969273048
 21
623.1568565102027
 31
0.0
  0
LINE
  5
17D
330
1F
100
AcDbEntity
  8
_DEFAULT_CAD_LAYER
 62
   254
370
     0
100
AcDbLine
 10
501.9062907858372
 20
622.9983270640322
 30
0.0
 11
502.2524241035891
 21
623.3444603817836
 31
0.0
  0
LINE
  5
17E
330
1F
100
AcDbEntity
  8
_DEFAULT_CAD_LAYER
 62
   254
370
     0
100
AcDbLine
 10
501.7642755435231
 20
623.0330885170148
 30
0.0
 11
502.2632512798733
 21
623.5320642533645
 31
0.0
  0
LINE
  5
17F
330
1F
100
AcDbEntity
  8
_DEFAULT_CAD_LAYER
 62
   254
370
     0
100
AcDbLine
 10
501.7919216745712
 20
623.2375113433596
 30
0.0
 11
502.2740784561576
 21
623.7196681249463
 31
0.0
  0
LINE
  5
180
330
1F
100
AcDbEntity
  8
_DEFAULT_CAD_LAYER
 62
   254
370
     0
100
AcDbLine
 10
501.8195678056194
 20
623.4419341697054
 30
0.0
 11
502.2849056324419
 21
623.9072719965282
 31
0.0
  0
LINE
  5
181
330
1F
100
AcDbEntity
  8
_DEFAULT_CAD_LAYER
 62
   254
370
     0
100
AcDbLine
 10
501.8472139366675
 20
623.6463569960504
 30
0.0
 11
502.2957328087261
 21
624.094875868109
 31
0.0
  0
LINE
  5
182
330
1F
100
AcDbEntity
  8
_DEFAULT_CAD_LAYER
 62
   254
370
     0
100
AcDbLine
 10
501.8748600677155
 20
623.8507798223949
 30
0.0
 11
502.3065599850104
 21
624.28247973969
 31
0.0
  0
LINE
  5
183
330
1F
100
AcDbEntity
  8
_DEFAULT_CAD_LAYER
 62
   254
370
     0
100
AcDbLine
 10
501.9025061987635
 20
624.0552026487394
 30
0.0
 11
502.3173871612946
 21
624.4700836112708
 31
0.0
  0
LINE
  5
184
330
1F
100
AcDbEntity
  8
_DEFAULT_CAD_LAYER
 62
   254
370
     0
100
AcDbLine
 10
501.9301523298116
 20
624.2596254750844
 30
0.0
 11
502.3282143375789
 21
624.6576874828517
 31
0.0
  0
LINE
  5
185
330
1F
100
AcDbEntity
  8
_DEFAULT_CAD_LAYER
 62
   254
370
     0
100
AcDbLine
 10
501.9577984608596
 20
624.4640483014289
 30
0.0
 11
502.3390415138631
 21
624.8452913544326
 31
0.0
  0
LINE
  5
186
330
1F
100
AcDbEntity
  8
_DEFAULT_CAD_LAYER
 62
   254
370
     0
100
AcDbLine
 10
501.9854445919077
 20
624.6684711277737
 30
0.0
 11
502.3498686901473
 21
625.0328952260134
 31
0.0
  0
LINE
  5
187
330
1F
100
AcDbEntity
  8
_DEFAULT_CAD_LAYER
 62
   254
370
     0
100
AcDbLine
 10
502.0130907229557
 20
624.8728939541182
 30
0.0
 11
502.3606958664316
 21
625.2204990975943
 31
0.0
  0
LINE
  5
188
330
1F
100
AcDbEntity
  8
_DEFAULT_CAD_LAYER
 62
   254
370
     0
100
AcDbLine
 10
502.0407368540037
 20
625.0773167804632
 30
0.0
 11
502.3715230427158
 21
625.4081029691752
 31
0.0
  0
LINE
  5
189
330
1F
100
AcDbEntity
  8
_DEFAULT_CAD_LAYER
 62
   254
370
     0
100
AcDbLine
 10
502.0683829850518
 20
625.2817396068077
 30
0.0
 11
502.382350219
 21
625.595706840756
 31
0.0
  0
LINE
  5
18A
330
1F
100
AcDbEntity
  8
_DEFAULT_CAD_LAYER
 62
   254
370
     0
100
AcDbLine
 10
502.0960291160996
 20
625.486162433151
 30
0.0
 11
502.3931773952842
 21
625.7833107123358
 31
0.0
  0
LINE
  5
18B
330
1F
100
AcDbEntity
  8
_DEFAULT_CAD_LAYER
 62
   254
370
     0
100
AcDbLine
 10
502.1236752471476
 20
625.6905852594955
 30
0.0
 11
502.4040045715685
 21
625.9709145839167
 31
0.0
  0
LINE
  5
18C
330
1F
100
AcDbEntity
  8
_DEFAULT_CAD_LAYER
 62
   254
370
     0
100
AcDbLine
 10
502.1513213781956
 20
625.89500808584
 30
0.0
 11
502.4148317478527
 21
626.1585184554975
 31
0.0
  0
LINE
  5
18D
330
1F
100
AcDbEntity
  8
_DEFAULT_CAD_LAYER
 62
   254
370
     0
100
AcDbLine
 10
502.1789675092437
 20
626.0994309121849
 30
0.0
 11
502.4256589241369
 21
626.3461223270784
 31
0.0
  0
LINE
  5
18E
330
1F
100
AcDbEntity
  8
_DEFAULT_CAD_LAYER
 62
   254
370
     0
100
AcDbLine
 10
502.2066136402918
 20
626.3038537385298
 30
0.0
 11
502.4364861004212
 21
626.5337261986593
 31
0.0
  0
LINE
  5
18F
330
1F
100
AcDbEntity
  8
_DEFAULT_CAD_LAYER
 62
   254
370
     0
100
AcDbLine
 10
502.2342597713398
 20
626.5082765648743
 30
0.0
 11
502.4473132767054
 21
626.7213300702401
 31
0.0
  0
LINE
  5
190
330
1F
100
AcDbEntity
  8
_DEFAULT_CAD_LAYER
 62
   254
370
     0
100
AcDbLine
 10
502.2619059023878
 20
626.7126993912188
 30
0.0
 11
502.4581404529897
 21
626.908933941821
 31
0.0
  0
LINE
  5
191
330
1F
100
AcDbEntity
  8
_DEFAULT_CAD_LAYER
 62
   254
370
     0
100
AcDbLine
 10
502.2895520334359
 20
626.9171222175637
 30
0.0
 11
502.4689676292739
 21
627.0965378134019
 31
0.0
  0
LINE
  5
192
330
1F
100
AcDbEntity
  8
_DEFAULT_CAD_LAYER
 62
   254
370
     0
100
AcDbLine
 10
502.3171981644839
 20
627.1215450439082
 30
0.0
 11
502.4797948055581
 21
627.2841416849827
 31
0.0
  0
LINE
  5
193
330
1F
100
AcDbEntity
  8
_DEFAULT_CAD_LAYER
 62
   254
370
     0
100
AcDbLine
 10
502.3448442955319
 20
627.3259678702527
 30
0.0
 11
502.4906219818424
 21
627.4717455565636
 31
0.0
  0
LWPOLYLINE
  5
194
330
1F
100
AcDbEntity
  8
_DEFAULT_CAD_LAYER
 62
    35
370
    18
100
AcDbPolyline
 90
        4
 70
     1
 43
0.0
 10
502.4909664651991
 20
627.4777144638525
 10
502.2316579365649
 20
622.984642343417
 10
501.7604042239783
 20
623.0044629533993
 10
502.3660768803704
 20
627.4829672346756
  0
LINE
  5
195
330
1F
100
AcDbEntity
  8
_DEFAULT_CAD_LAYER
 62
     5
370
     9
100
AcDbLine
 10
504.4548075804038
 20
626.079584954979
 30
0.0
 11
504.4548075804038
 21
577.9204150450207
 31
0.0
1001
CHIEFARC-LNWT
1070
     8
  0
LINE
  5
199
330
1F
100
AcDbEntity
  8
Text
100
AcDbLine
 10
510.8175670481596
 20
616.5150134981665
 30
0.0
 11
511.558592451944
 21
617.2315198491126
 31
0.0
  0
LINE
  5
19A
330
1F
100
AcDbEntity
  8
Text
100
AcDbLine
 10
510.8175670481596
 20
616.5150134981665
 30
0.0
 11
511.808592451944
 21
616.7985071472203
 31
0.0
  0
LWPOLYLINE
  5
19B
330
1F
100
AcDbEntity
  8
Text
100
AcDbPolyline
 90
        3
 70
     0
 43
0.0
 10
526.0752127017164
 20
622.9611783184594
 10
521.9826520308701
 20
622.9611783184595
 10
510.8175670481596
 20
616.5150134981665
  0
LINE
  5
19C
330
1F
100
AcDbEntity
  8
Text
100
AcDbLine
 10
509.3475165307554
 20
611.6662794362207
 30
0.0
 11
510.0885419345398
 21
612.3827857871669
 31
0.0
  0
LINE
  5
19D
330
1F
100
AcDbEntity
  8
Text
100
AcDbLine
 10
509.3475165307554
 20
611.6662794362207
 30
0.0
 11
510.3385419345398
 21
611.9497730852746
 31
0.0
  0
LWPOLYLINE
  5
19E
330
1F
100
AcDbEntity
  8
Text
100
AcDbPolyline
 90
        3
 70
     0
 43
0.0
 10
526.0752127017164
 20
618.9611783184592
 10
521.9826520308701
 20
618.9611783184594
 10
509.3475165307554
 20
611.6662794362207
  0
LINE
  5
19F
330
1F
100
AcDbEntity
  8
Text
100
AcDbLine
 10
504.6741703060756
 20
604.9681217353856
 30
0.0
 11
505.41519570986
 21
605.6846280863317
 31
0.0
  0
LINE
  5
1A0
330
1F
100
AcDbEntity
  8
Text
100
AcDbLine
 10
504.6741703060756
 20
604.9681217353856
 30
0.0
 11
505.66519570986
 21
605.2516153844394
 31
0.0
  0
LWPOLYLINE
  5
1A1
330
1F
100
AcDbEntity
  8
Text
100
AcDbPolyline
 90
        3
 70
     0
 43
0.0
 10
526.0752127017164
 20
614.9611783184594
 10
521.9826520308701
 20
614.9611783184595
 10
504.6741703060756
 20
604.9681217353856
  0
LINE
  5
1A2
330
1F
100
AcDbEntity
  8
Text
100
AcDbLine
 10
504.5311442702109
 20
600.885545615078
 30
0.0
 11
505.2721696739953
 21
601.6020519660241
 31
0.0
  0
LINE
  5
1A3
330
1F
100
AcDbEntity
  8
Text
100
AcDbLine
 10
504.5311442702109
 20
600.885545615078
 30
0.0
 11
505.5221696739953
 21
601.1690392641318
 31
0.0
  0
LWPOLYLINE
  5
1A4
330
1F
100
AcDbEntity
  8
Text
100
AcDbPolyline
 90
        3
 70
     0
 43
0.0
 10
526.0752127017164
 20
610.9611783184594
 10
521.9826520308701
 20
610.9611783184595
 10
504.5311442702109
 20
600.885545615078
  0
LINE
  5
1A5
330
1F
100
AcDbEntity
  8
Text
100
AcDbLine
 10
503.6001232209596
 20
592.3480203616715
 30
0.0
 11
504.3411486247441
 21
593.0645267126176
 31
0.0
  0
LINE
  5
1A6
330
1F
100
AcDbEntity
  8
Text
100
AcDbLine
 10
503.6001232209596
 20
592.3480203616715
 30
0.0
 11
504.5911486247441
 21
592.6315140107254
 31
0.0
  0
LWPOLYLINE
  5
1A7
330
1F
100
AcDbEntity
  8
Text
100
AcDbPolyline
 90
        3
 70
     0
 43
0.0
 10
526.0752127017164
 20
602.9611783184594
 10
521.9826520308701
 20
602.9611783184595
 10
503.6001232209596
 20
592.3480203616715
  0
LINE
  5
1A8
330
1F
100
AcDbEntity
  8
Text
100
AcDbLine
 10
502.0554689281503
 20
587.4562137899131
 30
0.0
 11
502.7964943319347
 21
588.1727201408593
 31
0.0
  0
LINE
  5
1A9
330
1F
100
AcDbEntity
  8
Text
100
AcDbLine
 10
502.0554689281503
 20
587.4562137899131
 30
0.0
 11
503.0464943319347
 21
587.739707438967
 31
0.0
  0
LWPOLYLINE
  5
1AA
330
1F
100
AcDbEntity
  8
Text
100
AcDbPolyline
 90
        3
 70
     0
 43
0.0
 10
526.0752127017164
 20
598.9611783184592
 10
521.9826520308701
 20
598.9611783184594
 10
502.0554689281503
 20
587.4562137899131
  0
LINE
  5
1AB
330
1F
100
AcDbEntity
  8
Text
100
AcDbLine
 10
504.4247872982835
 20
596.8241403887055
 30
0.0
 11
505.1658127020679
 21
597.5406467396516
 31
0.0
  0
LINE
  5
1AC
330
1F
100
AcDbEntity
  8
Text
100
AcDbLine
 10
504.4247872982835
 20
596.8241403887055
 30
0.0
 11
505.4158127020679
 21
597.1076340377593
 31
0.0
  0
LWPOLYLINE
  5
1AD
330
1F
100
AcDbEntity
  8
Text
100
AcDbPolyline
 90
        3
 70
     0
 43
0.0
 10
526.0752127017164
 20
606.9611783184594
 10
521.9826520308701
 20
606.9611783184595
 10
504.4247872982835
 20
596.8241403887055
  0
MTEXT
  5
1AE
330
1F
100
AcDbEntity
  8
Text
 62
   156
370
     9
100
AcDbMText
 10
526.5752127017163
 20
622.8332963453893
 30
0.0
 40
1.0
 41
17.08
 46
0.0
 71
     7
 72
     1
  1
\fArial|b0|i0|c0|p0;EXISTING 1/2" DRYWALL
 73
     1
 44
1.0
1001
CHIEFARC-LNWT
1070
    10
1001
CHIEFARC_RTFBINARY
1000

1001
CHIEFARC_SIMPLE_TEXT_BINARY
1000

1001
CHIEFARC-WIDTHEXPANDED
1070
     1
1001
CHIEFARC_AUTOHEIGHT
1070
     1
1001
CHIEFARC_AUTOWIDTH
1070
     1
  0
MTEXT
  5
1B4
330
1F
100
AcDbEntity
  8
Text
 62
   156
370
     9
100
AcDbMText
 10
526.5752127017164
 20
618.8332963453893
 30
0.0
 40
1.0
 41
27.17
 46
0.0
 71
     7
 72
     1
  1
\fArial|b0|i0|c0|p0;EXISTING 2" X 6" WOOD FRAMED WALL
 73
     1
 44
1.0
1001
CHIEFARC-LNWT
1070
    10
1001
CHIEFARC_RTFBINARY
1000

1001
CHIEFARC_SIMPLE_TEXT_BINARY
1000

1001
CHIEFARC-WIDTHEXPANDED
1070
     1
1001
CHIEFARC_AUTOHEIGHT
1070
     1
1001
CHIEFARC_AUTOWIDTH
1070
     1
  0
MTEXT
  5
1B5
330
1F
100
AcDbEntity
  8
Text
 62
   156
370
     9
100
AcDbMText
 10
526.5752127017164
 20
614.8332963453893
 30
0.0
 40
1.0
 41
23.44
 46
0.0
 71
     7
 72
     1
  1
\fArial|b0|i0|c0|p0;EXISTING EXTERIOR SHEATHING
 73
     1
 44
1.0
1001
CHIEFARC-LNWT
1070
    10
1001
CHIEFARC_RTFBINARY
1000

1001
CHIEFARC_SIMPLE_TEXT_BINARY
1000

1001
CHIEFARC-WIDTHEXPANDED
1070
     1
1001
CHIEFARC_AUTOHEIGHT
1070
     1
1001
CHIEFARC_AUTOWIDTH
1070
     1
  0
MTEXT
  5
1B6
330
1F
100
AcDbEntity
  8
Text
 62
   156
370
     9
100
AcDbMText
 10
526.5752127017164
 20
610.5632963453893
 30
0.0
 40
1.0
 41
34.60000000000001
 46
0.0
 71
     7
 72
     1
  1
\fArial|b0|i0|c0|p0;BUILDING WRAP (WEATHER RESISTANT BARRIER)
 73
     1
 44
1.0
1001
CHIEFARC-LNWT
1070
    10
1001
CHIEFARC_RTFBINARY
1000

1001
CHIEFARC_SIMPLE_TEXT_BINARY
1000

1001
CHIEFARC-WIDTHEXPANDED
1070
     1
1001
CHIEFARC_AUTOHEIGHT
1070
     1
1001
CHIEFARC_AUTOWIDTH
1070
     1
  0
MTEXT
  5
1B7
330
1F
100
AcDbEntity
  8
Text
 62
   156
370
     9
100
AcDbMText
 10
526.5752127017163
 20
602.8332963453893
 30
0.0
 40
1.0
 41
12.55
 46
0.0
 71
     7
 72
     1
  1
\fArial|b0|i0|c0|p0;INSOFAST PANEL
 73
     1
 44
1.0
1001
CHIEFARC-LNWT
1070
    10
1001
CHIEFARC_RTFBINARY
1000

1001
CHIEFARC_SIMPLE_TEXT_BINARY
1000

1001
CHIEFARC-WIDTHEXPANDED
1070
     1
1001
CHIEFARC_AUTOHEIGHT
1070
     1
1001
CHIEFARC_AUTOWIDTH
1070
     1
  0
MTEXT
  5
1B8
330
1F
100
AcDbEntity
  8
Text
 62
   156
370
     9
100
AcDbMText
 10
526.5752127017163
 20
598.8332963453893
 30
0.0
 40
1.0
 41
16.45
 46
0.0
 71
     7
 72
     1
  1
\fArial|b0|i0|c0|p0;NEW EXTERIOR FINISH
 73
     1
 44
1.0
1001
CHIEFARC-LNWT
1070
    10
1001
CHIEFARC_RTFBINARY
1000

1001
CHIEFARC_SIMPLE_TEXT_BINARY
1000

1001
CHIEFARC-WIDTHEXPANDED
1070
     1
1001
CHIEFARC_AUTOHEIGHT
1070
     1
1001
CHIEFARC_AUTOWIDTH
1070
     1
  0
MTEXT
  5
1B9
330
1F
100
AcDbEntity
  8
Text
 62
   156
370
     9
100
AcDbMText
 10
526.5752127017163
 20
606.8332963453893
 30
0.0
 40
1.0
 41
17.7
 46
0.0
 71
     7
 72
     1
  1
\fArial|b0|i0|c0|p0;DRAIN & DRY CHANNELS
 73
     1
 44
1.0
1001
CHIEFARC-LNWT
1070
    10
1001
CHIEFARC_RTFBINARY
1000

1001
CHIEFARC_SIMPLE_TEXT_BINARY
1000

1001
CHIEFARC-WIDTHEXPANDED
1070
     1
1001
CHIEFARC_AUTOHEIGHT
1070
     1
1001
CHIEFARC_AUTOWIDTH
1070
     1
  0
MTEXT
  5
1BA
330
1F
100
AcDbEntity
  8
Text
 62
   156
370
     9
100
AcDbMText
 10
479.9999999999999
 20
556.4520670391064
 30
0.0
 40
2.0
 41
76.48000000000003
 46
0.0
 71
     7
 72
     1
  1
\fArial|b0|i0|c0|p0;ISF 05.02.01     INSOFAST - WOOD FRAMED - EXTERIOR
 73
     1
 44
1.0
1001
CHIEFARC-LNWT
1070
    10
1001
CHIEFARC_RTFBINARY
1000

1001
CHIEFARC_SIMPLE_TEXT_BINARY
1000

1001
CHIEFARC-WIDTHEXPANDED
1070
     1
1001
CHIEFARC_AUTOHEIGHT
1070
     1
1001
CHIEFARC_AUTOWIDTH
1070
     1
  0
INSERT
  5
1CA
330
1F
100
AcDbEntity
  8
_DEFAULT_CAD_LAYER
  6
Continuous
370
     0
100
AcDbBlockReference
  2
block34_1
 10
512.4919257706468
 20
626.9323161638929
 30
0.0
 42
0.6307411349277497
 50
90.0
1001
CHIEFARC-LNWT
1070
     0
  0
INSERT
  5
1CB
330
1F
100
AcDbEntity
  8
_DEFAULT_CAD_LAYER
100
AcDbBlockReference
  2
block34_1
 10
499.7498036424614
 20
577.6400732858201
 30
0.0
 42
0.6402259640243956
 50
-90.0
  0
ENDSEC
  0
SECTION
  2
OBJECTS
  0
DICTIONARY
  5
C
330
0
100
AcDbDictionary
281
     1
  3
ACAD_GROUP
350
D
  3
ACAD_LAYOUT
350
1A
  3
ACAD_MLEADERSTYLE
350
1CD
  3
ACAD_MLINESTYLE
350
17
  3
ACAD_PLOTSETTINGS
350
19
  3
ACAD_PLOTSTYLENAME
350
E
  3
ACAD_TABLESTYLE
350
1CC
  3
ACAD_VISUALSTYLE
350
2A
  0
DICTIONARY
  5
D
102
{ACAD_REACTORS
330
C
102
}
330
C
100
AcDbDictionary
281
     1
  0
DICTIONARY
  5
1A
102
{ACAD_REACTORS
330
C
102
}
330
C
100
AcDbDictionary
281
     1
  3
Layout1
350
1E
  3
Layout2
350
26
  3
Model
350
22
  0
DICTIONARY
  5
1CD
102
{ACAD_REACTORS
330
C
102
}
330
C
100
AcDbDictionary
281
     1
  0
DICTIONARY
  5
17
102
{ACAD_REACTORS
330
C
102
}
330
C
100
AcDbDictionary
281
     1
  3
Standard
350
18
  0
DICTIONARY
  5
19
102
{ACAD_REACTORS
330
C
102
}
330
C
100
AcDbDictionary
281
     1
  0
ACDBDICTIONARYWDFLT
  5
E
102
{ACAD_REACTORS
330
C
102
}
330
C
100
AcDbDictionary
281
     1
  3
Normal
350
F
100
AcDbDictionaryWithDefault
340
F
  0
DICTIONARY
  5
1CC
102
{ACAD_REACTORS
330
C
102
}
330
C
100
AcDbDictionary
281
     1
  0
DICTIONARY
  5
2A
102
{ACAD_REACTORS
330
C
102
}
330
C
100
AcDbDictionary
281
     1
  3
2dWireframe
350
2F
  3
3D Hidden
350
31
  3
3dWireframe
350
30
  3
Basic
350
32
  3
Brighten
350
36
  3
ColorChange
350
3A
  3
Conceptual
350
34
  3
Dim
350
35
  3
Facepattern
350
39
  3
Flat
350
2B
  3
FlatWithEdges
350
2C
  3
Gouraud
350
2D
  3
GouraudWithEdges
350
2E
  3
Linepattern
350
38
  3
Realistic
350
33
  3
Thicken
350
37
  0
LAYOUT
  5
1E
102
{ACAD_REACTORS
330
1A
102
}
330
1A
100
AcDbPlotSettings
  1

  2
none_device
  4

  6

 40
0.0
 41
0.0
 42
0.0
 43
0.0
 44
0.0
 45
0.0
 46
0.0
 47
0.0
 48
0.0
 49
0.0
140
0.0
141
0.0
142
1.0
143
1.0
 70
   688
 72
     0
 73
     0
 74
     5
  7

 75
    16
 76
     0
 77
     2
 78
   300
147
1.0
148
0.0
149
0.0
100
AcDbLayout
  1
Layout1
 70
     1
 71
     1
 10
0.0
 20
0.0
 11
12.0
 21
9.0
 12
0.0
 22
0.0
 32
0.0
 14
1.000000000000000E+20
 24
1.000000000000000E+20
 34
1.000000000000000E+20
 15
-1.000000000000000E+20
 25
-1.000000000000000E+20
 35
-1.000000000000000E+20
146
0.0
 13
0.0
 23
0.0
 33
0.0
 16
1.0
 26
0.0
 36
0.0
 17
0.0
 27
1.0
 37
0.0
 76
     0
330
1B
  0
LAYOUT
  5
26
102
{ACAD_REACTORS
330
1A
102
}
330
1A
100
AcDbPlotSettings
  1

  2
none_device
  4

  6

 40
0.0
 41
0.0
 42
0.0
 43
0.0
 44
0.0
 45
0.0
 46
0.0
 47
0.0
 48
0.0
 49
0.0
140
0.0
141
0.0
142
1.0
143
1.0
 70
   688
 72
     0
 73
     0
 74
     5
  7

 75
    16
 76
     0
 77
     2
 78
   300
147
1.0
148
0.0
149
0.0
100
AcDbLayout
  1
Layout2
 70
     1
 71
     2
 10
0.0
 20
0.0
 11
0.0
 21
0.0
 12
0.0
 22
0.0
 32
0.0
 14
0.0
 24
0.0
 34
0.0
 15
0.0
 25
0.0
 35
0.0
146
0.0
 13
0.0
 23
0.0
 33
0.0
 16
1.0
 26
0.0
 36
0.0
 17
0.0
 27
1.0
 37
0.0
 76
     0
330
23
  0
LAYOUT
  5
22
102
{ACAD_REACTORS
330
1A
102
}
330
1A
100
AcDbPlotSettings
  1

  2
none_device
  4

  6

 40
0.0
 41
0.0
 42
0.0
 43
0.0
 44
0.0
 45
0.0
 46
0.0
 47
0.0
 48
0.0
 49
0.0
140
0.0
141
0.0
142
1.0
143
1.0
 70
  1712
 72
     0
 73
     0
 74
     0
  7

 75
     0
 76
     0
 77
     2
 78
   300
147
1.0
148
0.0
149
0.0
100
AcDbLayout
  1
Model
 70
     1
 71
     0
 10
0.0
 20
0.0
 11
12.0
 21
9.0
 12
0.0
 22
0.0
 32
0.0
 14
0.0
 24
1.0
 34
0.0
 15
1.0
 25
0.0
 35
0.0
146
0.0
 13
0.0
 23
0.0
 33
0.0
 16
1.0
 26
0.0
 36
0.0
 17
0.0
 27
1.0
 37
0.0
 76
     0
330
1F
331
29
  0
MLINESTYLE
  5
18
102
{ACAD_REACTORS
330
17
102
}
330
17
100
AcDbMlineStyle
  2
Standard
 70
     0
  3

 62
   256
 51
90.0
 52
90.0
 71
     2
 49
0.5
 62
   256
  6
BYLAYER
 49
-0.5
 62
   256
  6
BYLAYER
  0
ACDBPLACEHOLDER
  5
F
102
{ACAD_REACTORS
330
E
102
}
330
E
  0
VISUALSTYLE
  5
2F
102
{ACAD_REACTORS
330
2A
102
}
330
2A
100
AcDbVisualStyle
  2
2dWireframe
 70
     4
 71
     0
 72
     2
 73
     0
 90
        0
 40
-0.6
 41
-30.0
 62
     5
 63
     7
421
 16777215
 74
     1
 91
        4
 64
     7
 65
   257
 75
     1
175
     1
 42
1.0
 92
        0
 66
   257
 43
1.0
 76
     1
 77
     6
 78
     2
 67
     7
 79
     5
170
     0
171
     0
290
     0
174
     0
 93
        1
 44
0.0
173
     0
291
     0
 45
0.0
  0
VISUALSTYLE
  5
31
102
{ACAD_REACTORS
330
2A
102
}
330
2A
100
AcDbVisualStyle
  2
3D Hidden
 70
     6
 71
     1
 72
     2
 73
     2
 90
        0
 40
-0.6
 41
-30.0
 62
     5
 63
     7
421
 16777215
 74
     2
 91
        2
 64
     7
 65
   257
 75
     2
175
     1
 42
40.0
 92
        0
 66
   257
 43
1.0
 76
     1
 77
     6
 78
     2
 67
     7
 79
     3
170
     0
171
     0
290
     0
174
     0
 93
        1
 44
0.0
173
     0
291
     0
 45
0.0
  0
VISUALSTYLE
  5
30
102
{ACAD_REACTORS
330
2A
102
}
330
2A
100
AcDbVisualStyle
  2
3dWireframe
 70
     5
 71
     0
 72
     2
 73
     0
 90
        0
 40
-0.6
 41
-30.0
 62
     5
 63
     7
421
 16777215
 74
     1
 91
        4
 64
     7
 65
   257
 75
     1
175
     1
 42
1.0
 92
        0
 66
   257
 43
1.0
 76
     1
 77
     6
 78
     2
 67
     7
 79
     5
170
     0
171
     0
290
     0
174
     0
 93
        1
 44
0.0
173
     0
291
     0
 45
0.0
  0
VISUALSTYLE
  5
32
102
{ACAD_REACTORS
330
2A
102
}
330
2A
100
AcDbVisualStyle
  2
Basic
 70
     7
 71
     1
 72
     0
 73
     1
 90
        0
 40
-0.6
 41
-30.0
 62
     5
 63
     7
421
 16777215
 74
     0
 91
        4
 64
     7
 65
   257
 75
     1
175
     1
 42
1.0
 92
        8
 66
     7
 43
1.0
 76
     1
 77
     6
 78
     2
 67
     7
 79
     5
170
     0
171
     0
290
     0
174
     0
 93
        1
 44
0.0
173
     0
291
     1
 45
0.0
  0
VISUALSTYLE
  5
36
102
{ACAD_REACTORS
330
2A
102
}
330
2A
100
AcDbVisualStyle
  2
Brighten
 70
    12
 71
     2
 72
     2
 73
     0
 90
        0
 40
-0.6
 41
-30.0
 62
     5
 63
     7
421
 16777215
 74
     1
 91
        4
 64
     7
 65
   257
 75
     1
175
     1
 42
1.0
 92
        8
 66
     7
 43
1.0
 76
     1
 77
     6
 78
     2
 67
     7
 79
     5
170
     0
171
     0
290
     0
174
     0
 93
        1
 44
50.0
173
     0
291
     1
 45
0.0
  0
VISUALSTYLE
  5
3A
102
{ACAD_REACTORS
330
2A
102
}
330
2A
100
AcDbVisualStyle
  2
ColorChange
 70
    16
 71
     2
 72
     2
 73
     3
 90
        0
 40
-0.6
 41
-30.0
 62
     5
 63
     8
421
  8421504
 74
     1
 91
        4
 64
     7
 65
   257
 75
     1
175
     1
 42
1.0
 92
        8
 66
     8
424
  8421504
 43
1.0
 76
     1
 77
     6
 78
     2
 67
     7
 79
     5
170
     0
171
     0
290
     0
174
     0
 93
        1
 44
0.0
173
     0
291
     1
 45
0.0
  0
VISUALSTYLE
  5
34
102
{ACAD_REACTORS
330
2A
102
}
330
2A
100
AcDbVisualStyle
  2
Conceptual
 70
     9
 71
     3
 72
     2
 73
     0
 90
        0
 40
-0.6
 41
-30.0
 62
     5
 63
     7
421
 16777215
 74
     2
 91
        2
 64
     7
 65
   257
 75
     1
175
     1
 42
40.0
 92
        8
 66
     7
 43
1.0
 76
     1
 77
     6
 78
     2
 67
     7
 79
     3
170
     0
171
     0
290
     0
174
     0
 93
        1
 44
0.0
173
     0
291
     0
 45
0.0
  0
VISUALSTYLE
  5
35
102
{ACAD_REACTORS
330
2A
102
}
330
2A
100
AcDbVisualStyle
  2
Dim
 70
    11
 71
     2
 72
     2
 73
     0
 90
        0
 40
-0.6
 41
-30.0
 62
     5
 63
     7
421
 16777215
 74
     1
 91
        4
 64
     7
 65
   257
 75
     1
175
     1
 42
1.0
 92
        8
 66
     7
 43
1.0
 76
     1
 77
     6
 78
     2
 67
     7
 79
     5
170
     0
171
     0
290
     0
174
     0
 93
        1
 44
-50.0
173
     0
291
     1
 45
0.0
  0
VISUALSTYLE
  5
39
102
{ACAD_REACTORS
330
2A
102
}
330
2A
100
AcDbVisualStyle
  2
Facepattern
 70
    15
 71
     2
 72
     2
 73
     0
 90
        0
 40
-0.6
 41
-30.0
 62
     5
 63
     7
421
 16777215
 74
     1
 91
        4
 64
     7
 65
   257
 75
     1
175
     1
 42
1.0
 92
        8
 66
     7
 43
1.0
 76
     1
 77
     6
 78
     2
 67
     7
 79
     5
170
     0
171
     0
290
     0
174
     0
 93
        1
 44
0.0
173
     0
291
     1
 45
0.0
  0
VISUALSTYLE
  5
2B
102
{ACAD_REACTORS
330
2A
102
}
330
2A
100
AcDbVisualStyle
  2
Flat
 70
     0
 71
     2
 72
     1
 73
     1
 90
        2
 40
-0.6
 41
30.0
 62
     5
 63
     7
421
 16777215
 74
     0
 91
        4
 64
     7
 65
   257
 75
     1
175
     1
 42
1.0
 92
        8
 66
     7
 43
1.0
 76
     1
 77
     6
 78
     2
 67
     7
 79
     5
170
     0
171
     0
290
     0
174
     0
 93
       13
 44
0.0
173
     0
291
     1
 45
0.0
  0
VISUALSTYLE
  5
2C
102
{ACAD_REACTORS
330
2A
102
}
330
2A
100
AcDbVisualStyle
  2
FlatWithEdges
 70
     1
 71
     2
 72
     1
 73
     1
 90
        2
 40
-0.6
 41
30.0
 62
     5
 63
     7
421
 16777215
 74
     1
 91
        4
 64
     7
 65
   257
 75
     1
175
     1
 42
1.0
 92
        0
 66
   257
 43
1.0
 76
     1
 77
     6
 78
     2
 67
     7
 79
     5
170
     0
171
     0
290
     0
174
     0
 93
       13
 44
0.0
173
     0
291
     1
 45
0.0
  0
VISUALSTYLE
  5
2D
102
{ACAD_REACTORS
330
2A
102
}
330
2A
100
AcDbVisualStyle
  2
Gouraud
 70
     2
 71
     2
 72
     2
 73
     1
 90
        2
 40
-0.6
 41
30.0
 62
     5
 63
     7
421
 16777215
 74
     0
 91
        4
 64
     7
 65
   257
 75
     1
175
     1
 42
1.0
 92
        0
 66
     7
 43
1.0
 76
     1
 77
     6
 78
     2
 67
     7
 79
     5
170
     0
171
     0
290
     0
174
     0
 93
       13
 44
0.0
173
     0
291
     1
 45
0.0
  0
VISUALSTYLE
  5
2E
102
{ACAD_REACTORS
330
2A
102
}
330
2A
100
AcDbVisualStyle
  2
GouraudWithEdges
 70
     3
 71
     2
 72
     2
 73
     1
 90
        2
 40
-0.6
 41
30.0
 62
     5
 63
     7
421
 16777215
 74
     1
 91
        4
 64
     7
 65
   257
 75
     1
175
     1
 42
1.0
 92
        0
 66
   257
 43
1.0
 76
     1
 77
     6
 78
     2
 67
     7
 79
     5
170
     0
171
     0
290
     0
174
     0
 93
       13
 44
0.0
173
     0
291
     1
 45
0.0
  0
VISUALSTYLE
  5
38
102
{ACAD_REACTORS
330
2A
102
}
330
2A
100
AcDbVisualStyle
  2
Linepattern
 70
    14
 71
     2
 72
     2
 73
     0
 90
        0
 40
-0.6
 41
-30.0
 62
     5
 63
     7
421
 16777215
 74
     1
 91
        4
 64
     7
 65
   257
 75
     7
175
     7
 42
1.0
 92
        8
 66
     7
 43
1.0
 76
     1
 77
     6
 78
     2
 67
     7
 79
     5
170
     0
171
     0
290
     0
174
     0
 93
        1
 44
0.0
173
     0
291
     1
 45
0.0
  0
VISUALSTYLE
  5
33
102
{ACAD_REACTORS
330
2A
102
}
330
2A
100
AcDbVisualStyle
  2
Realistic
 70
     8
 71
     2
 72
     2
 73
     0
 90
        0
 40
-0.6
 41
-30.0
 62
     5
 63
     7
421
 16777215
 74
     1
 91
        0
 64
     7
 65
   257
 75
     1
175
     1
 42
1.0
 92
        8
 66
     8
424
  7895160
 43
1.0
 76
     1
 77
     6
 78
     2
 67
     7
 79
     5
170
     0
171
     0
290
     0
174
     0
 93
       13
 44
0.0
173
     0
291
     0
 45
0.0
  0
VISUALSTYLE
  5
37
102
{ACAD_REACTORS
330
2A
102
}
330
2A
100
AcDbVisualStyle
  2
Thicken
 70
    13
 71
     2
 72
     2
 73
     0
 90
        0
 40
-0.6
 41
-30.0
 62
     5
 63
     7
421
 16777215
 74
     1
 91
        4
 64
     7
 65
   257
 75
     1
175
     1
 42
1.0
 92
       12
 66
     7
 43
1.0
 76
     1
 77
     6
 78
     2
 67
     7
 79
     5
170
     0
171
     0
290
     0
174
     0
 93
        1
 44
0.0
173
     0
291
     1
 45
0.0
  0
ENDSEC
  0
EOF
