  0
SECTION
  2
HEADER
  9
$ACADVER
  1
AC1021
  9
$ACADMAINTVER
 70
    25
  9
$DWGCODEPAGE
  3
ANSI_1252
  9
$COMMENTS
  1
Chief Architect X2; Version 12.6.0.25; Chief Architect, Inc.; 2009
  9
$INSBASE
 10
0.0
 20
0.0
 30
0.0
  9
$EXTMIN
 10
0.0
 20
1.0
 30
0.0
  9
$EXTMAX
 10
1.0
 20
0.0
 30
0.0
  9
$LIMMIN
 10
0.0
 20
0.0
  9
$LIMMAX
 10
12.0
 20
9.0
  9
$ORTHOMODE
 70
     0
  9
$REGENMODE
 70
     1
  9
$FILLMODE
 70
     1
  9
$QTEXTMODE
 70
     0
  9
$MIRRTEXT
 70
     1
  9
$LTSCALE
 40
96.0
  9
$ATTMODE
 70
     1
  9
$TEXTSIZE
 40
0.2
  9
$TRACEWID
 40
0.05
  9
$TEXTSTYLE
  7
Standard
  9
$CLAYER
  8
0
  9
$CELTYPE
  6
ByLayer
  9
$CECOLOR
 62
   256
  9
$CELTSCALE
 40
1.0
  9
$DISPSILH
 70
     0
  9
$DIMSCALE
 40
1.0
  9
$DIMASZ
 40
5.0
  9
$DIMEXO
 40
3.0
  9
$DIMDLI
 40
0.38
  9
$DIMRND
 40
0.0
  9
$DIMDLE
 40
0.0
  9
$DIMEXE
 40
3.0
  9
$DIMTP
 40
0.0
  9
$DIMTM
 40
0.0
  9
$DIMTXT
 40
6.0
  9
$DIMCEN
 40
0.09
  9
$DIMTSZ
 40
0.0
  9
$DIMTOL
 70
     0
  9
$DIMLIM
 70
     0
  9
$DIMTIH
 70
     0
  9
$DIMTOH
 70
     0
  9
$DIMSE1
 70
     0
  9
$DIMSE2
 70
     0
  9
$DIMTAD
 70
     0
  9
$DIMZIN
 70
     0
  9
$DIMBLK
  1

  9
$DIMASO
 70
     1
  9
$DIMSHO
 70
     1
  9
$DIMPOST
  1

  9
$DIMAPOST
  1

  9
$DIMALT
 70
     0
  9
$DIMALTD
 70
     0
  9
$DIMALTF
 40
1.0
  9
$DIMLFAC
 40
1.0
  9
$DIMTOFL
 70
     0
  9
$DIMTVP
 40
0.0
  9
$DIMTIX
 70
     0
  9
$DIMSOXD
 70
     0
  9
$DIMSAH
 70
     0
  9
$DIMBLK1
  1

  9
$DIMBLK2
  1

  9
$DIMSTYLE
  2
Standard
  9
$DIMCLRD
 70
     0
  9
$DIMCLRE
 70
     0
  9
$DIMCLRT
 70
     0
  9
$DIMTFAC
 40
1.0
  9
$DIMGAP
 40
0.5
  9
$DIMJUST
 70
     0
  9
$DIMSD1
 70
     0
  9
$DIMSD2
 70
     0
  9
$DIMTOLJ
 70
     1
  9
$DIMTZIN
 70
     0
  9
$DIMALTZ
 70
    12
  9
$DIMALTTZ
 70
     0
  9
$DIMUPT
 70
     0
  9
$DIMDEC
 70
     4
  9
$DIMTDEC
 70
     4
  9
$DIMALTU
 70
     2
  9
$DIMALTTD
 70
     2
  9
$DIMTXSTY
  7
Standard
  9
$DIMAUNIT
 70
     0
  9
$DIMADEC
 70
     0
  9
$DIMALTRND
 40
0.0
  9
$DIMAZIN
 70
     0
  9
$DIMDSEP
 70
    46
  9
$DIMATFIT
 70
     3
  9
$DIMFRAC
 70
     2
  9
$DIMLDRBLK
  1

  9
$DIMLUNIT
 70
     4
  9
$DIMLWD
 70
    -2
  9
$DIMLWE
 70
    -2
  9
$DIMTMOVE
 70
     0
  9
$DIMFXL
 40
3.0
  9
$DIMFXLON
 70
     0
  9
$DIMJOGANG
 40
0.7853981633974483
  9
$DIMTFILL
 70
     0
  9
$DIMTFILLCLR
 70
     0
  9
$DIMARCSYM
 70
     0
  9
$DIMLTYPE
  6

  9
$DIMLTEX1
  6

  9
$DIMLTEX2
  6

  9
$LUNITS
 70
     2
  9
$LUPREC
 70
     4
  9
$SKETCHINC
 40
0.1
  9
$FILLETRAD
 40
0.5
  9
$AUNITS
 70
     0
  9
$AUPREC
 70
     0
  9
$MENU
  1
.
  9
$ELEVATION
 40
0.0
  9
$PELEVATION
 40
0.0
  9
$THICKNESS
 40
0.0
  9
$LIMCHECK
 70
     0
  9
$CHAMFERA
 40
0.5
  9
$CHAMFERB
 40
0.5
  9
$CHAMFERC
 40
1.0
  9
$CHAMFERD
 40
0.0
  9
$SKPOLY
 70
     0
  9
$TDCREATE
 40
2455498.70524294
  9
$TDUCREATE
 40
2455498.913576273
  9
$TDUPDATE
 40
2455498.705242951
  9
$TDUUPDATE
 40
2455498.913576285
  9
$TDINDWG
 40
0.0000000116
  9
$TDUSRTIMER
 40
0.0000000116
  9
$USRTIMER
 70
     1
  9
$ANGBASE
 50
0.0
  9
$ANGDIR
 70
     0
  9
$PDMODE
 70
     0
  9
$PDSIZE
 40
0.0
  9
$PLINEWID
 40
0.0
  9
$SPLFRAME
 70
     0
  9
$SPLINETYPE
 70
     6
  9
$SPLINESEGS
 70
     8
  9
$HANDSEED
  5
42E
  9
$SURFTAB1
 70
     6
  9
$SURFTAB2
 70
     6
  9
$SURFTYPE
 70
     6
  9
$SURFU
 70
     6
  9
$SURFV
 70
     6
  9
$UCSBASE
  2

  9
$UCSNAME
  2

  9
$UCSORG
 10
0.0
 20
0.0
 30
0.0
  9
$UCSXDIR
 10
1.0
 20
0.0
 30
0.0
  9
$UCSYDIR
 10
0.0
 20
1.0
 30
0.0
  9
$UCSORTHOREF
  2

  9
$UCSORTHOVIEW
 70
     0
  9
$UCSORGTOP
 10
0.0
 20
0.0
 30
0.0
  9
$UCSORGBOTTOM
 10
0.0
 20
0.0
 30
0.0
  9
$UCSORGLEFT
 10
0.0
 20
0.0
 30
0.0
  9
$UCSORGRIGHT
 10
0.0
 20
0.0
 30
0.0
  9
$UCSORGFRONT
 10
0.0
 20
0.0
 30
0.0
  9
$UCSORGBACK
 10
0.0
 20
0.0
 30
0.0
  9
$PUCSBASE
  2

  9
$PUCSNAME
  2

  9
$PUCSORG
 10
0.0
 20
0.0
 30
0.0
  9
$PUCSXDIR
 10
1.0
 20
0.0
 30
0.0
  9
$PUCSYDIR
 10
0.0
 20
1.0
 30
0.0
  9
$PUCSORTHOREF
  2

  9
$PUCSORTHOVIEW
 70
     0
  9
$PUCSORGTOP
 10
0.0
 20
0.0
 30
0.0
  9
$PUCSORGBOTTOM
 10
0.0
 20
0.0
 30
0.0
  9
$PUCSORGLEFT
 10
0.0
 20
0.0
 30
0.0
  9
$PUCSORGRIGHT
 10
0.0
 20
0.0
 30
0.0
  9
$PUCSORGFRONT
 10
0.0
 20
0.0
 30
0.0
  9
$PUCSORGBACK
 10
0.0
 20
0.0
 30
0.0
  9
$USERI1
 70
     0
  9
$USERI2
 70
     0
  9
$USERI3
 70
     0
  9
$USERI4
 70
     0
  9
$USERI5
 70
     0
  9
$USERR1
 40
0.0
  9
$USERR2
 40
0.0
  9
$USERR3
 40
0.0
  9
$USERR4
 40
0.0
  9
$USERR5
 40
0.0
  9
$WORLDVIEW
 70
     1
  9
$SHADEDGE
 70
     3
  9
$SHADEDIF
 70
    70
  9
$TILEMODE
 70
     1
  9
$MAXACTVP
 70
    64
  9
$PINSBASE
 10
0.0
 20
0.0
 30
0.0
  9
$PLIMCHECK
 70
     0
  9
$PEXTMIN
 10
1.000000000000000E+20
 20
1.000000000000000E+20
 30
1.000000000000000E+20
  9
$PEXTMAX
 10
-1.000000000000000E+20
 20
-1.000000000000000E+20
 30
-1.000000000000000E+20
  9
$PLIMMIN
 10
0.0
 20
0.0
  9
$PLIMMAX
 10
12.0
 20
9.0
  9
$UNITMODE
 70
     0
  9
$VISRETAIN
 70
     1
  9
$PLINEGEN
 70
     0
  9
$PSLTSCALE
 70
     1
  9
$TREEDEPTH
 70
  3020
  9
$CMLSTYLE
  2
Standard
  9
$CMLJUST
 70
     0
  9
$CMLSCALE
 40
1.0
  9
$PROXYGRAPHICS
 70
     1
  9
$MEASUREMENT
 70
     0
  9
$CELWEIGHT
370
    -1
  9
$ENDCAPS
280
     0
  9
$JOINSTYLE
280
     0
  9
$LWDISPLAY
290
     0
  9
$INSUNITS
 70
     1
  9
$HYPERLINKBASE
  1

  9
$STYLESHEET
  1

  9
$XEDIT
290
     1
  9
$CEPSNTYPE
380
     0
  9
$PSTYLEMODE
290
     1
  9
$FINGERPRINTGUID
  2
{093BD234-C969-4031-9C27-3A8FCFC787FD}
  9
$VERSIONGUID
  2
{FAEB1C32-E019-11D5-929B-00C0DF256EC4}
  9
$EXTNAMES
290
     1
  9
$PSVPSCALE
 40
0.0
  9
$OLESTARTUP
290
     0
  9
$SORTENTS
280
   127
  9
$INDEXCTL
280
     0
  9
$HIDETEXT
280
     1
  9
$XCLIPFRAME
290
     0
  9
$HALOGAP
280
     0
  9
$OBSCOLOR
 70
   257
  9
$OBSLTYPE
280
     0
  9
$INTERSECTIONDISPLAY
280
     0
  9
$INTERSECTIONCOLOR
 70
   257
  9
$DIMASSOC
280
     2
  9
$PROJECTNAME
  1

  9
$CAMERADISPLAY
290
     0
  9
$LENSLENGTH
 40
50.0
  9
$CAMERAHEIGHT
 40
0.0
  9
$STEPSPERSEC
 40
2.0
  9
$STEPSIZE
 40
6.0
  9
$3DDWFPREC
 40
2.0
  9
$PSOLWIDTH
 40
0.25
  9
$PSOLHEIGHT
 40
4.0
  9
$LOFTANG1
 40
1.570796326794897
  9
$LOFTANG2
 40
1.570796326794897
  9
$LOFTMAG1
 40
0.0
  9
$LOFTMAG2
 40
0.0
  9
$LOFTPARAM
 70
     7
  9
$LOFTNORMALS
280
     1
  9
$LATITUDE
 40
37.795
  9
$LONGITUDE
 40
-122.394
  9
$NORTHDIRECTION
 40
0.0
  9
$TIMEZONE
 70
 -8000
  9
$LIGHTGLYPHDISPLAY
280
     1
  9
$TILEMODELIGHTSYNCH
280
     1
  9
$SOLIDHIST
280
     1
  9
$SHOWHIST
280
     1
  9
$DWFFRAME
280
     2
  9
$DGNFRAME
280
     2
  9
$REALWORLDSCALE
290
     1
  9
$INTERFERECOLOR
 62
   256
  9
$CSHADOW
280
     0
  9
$SHADOWPLANELOCATION
 40
0.0
  0
ENDSEC
  0
SECTION
  2
CLASSES
  0
CLASS
  1
ACDBDICTIONARYWDFLT
  2
AcDbDictionaryWithDefault
  3
ObjectDBX Classes
 90
        0
 91
        4
280
     0
281
     0
  0
CLASS
  1
VISUALSTYLE
  2
AcDbVisualStyle
  3
ObjectDBX Classes
 90
     4095
 91
        4
280
     0
281
     0
  0
ENDSEC
  0
SECTION
  2
TABLES
  0
TABLE
  2
VPORT
  5
8
330
0
100
AcDbSymbolTable
 70
     1
  0
VPORT
  5
29
330
8
100
AcDbSymbolTableRecord
100
AcDbViewportTableRecord
  2
*Active
 70
     0
 10
0.0
 20
0.0
 11
1.0
 21
1.0
 12
10.42990654205607
 22
4.5
 13
0.0
 23
0.0
 14
0.5
 24
0.5
 15
0.5
 25
0.5
 16
0.0
 26
0.0
 36
1.0
 17
0.0
 27
0.0
 37
0.0
 40
9.0
 41
1.972972972850329
 42
50.0
 43
0.0
 44
0.0
 50
0.0
 51
0.0
 71
     0
 72
   100
 73
     1
 74
     3
 75
     0
 76
     0
 77
     0
 78
     0
281
     0
 65
     1
110
0.0
120
0.0
130
0.0
111
1.0
121
0.0
131
0.0
112
0.0
122
1.0
132
0.0
 79
     0
146
0.0
 60
     3
 61
     5
292
     1
282
     1
141
0.0
142
0.0
 63
   250
  0
ENDTAB
  0
TABLE
  2
LTYPE
  5
5
330
0
100
AcDbSymbolTable
 70
     2
  0
LTYPE
  5
14
330
5
100
AcDbSymbolTableRecord
100
AcDbLinetypeTableRecord
  2
ByBlock
 70
     0
  3

 72
    65
 73
     0
 40
0.0
  0
LTYPE
  5
15
330
5
100
AcDbSymbolTableRecord
100
AcDbLinetypeTableRecord
  2
ByLayer
 70
     0
  3

 72
    65
 73
     0
 40
0.0
  0
LTYPE
  5
16
330
5
100
AcDbSymbolTableRecord
100
AcDbLinetypeTableRecord
  2
Continuous
 70
     0
  3
Solid line
 72
    65
 73
     0
 40
0.0
  0
LTYPE
  5
3F7
330
5
100
AcDbSymbolTableRecord
100
AcDbLinetypeTableRecord
  2
ISO08W100
 70
     0
  3
ISO08W100 LINE
 72
    65
 73
     4
 40
0.96
 49
0.48
 74
     0
 49
-0.12
 74
     0
 49
0.24
 74
     0
 49
-0.12
 74
     0
  0
ENDTAB
  0
TABLE
  2
LAYER
  5
2
330
0
100
AcDbSymbolTable
 70
     4
  0
LAYER
  5
10
330
2
100
AcDbSymbolTableRecord
100
AcDbLayerTableRecord
  2
0
 70
     0
 62
     7
  6
Continuous
370
    -3
390
F
347
0
  0
LAYER
  5
3C
330
2
100
AcDbSymbolTableRecord
100
AcDbLayerTableRecord
  2
_DEFAULT_CAD_LAYER
 70
     0
 62
     7
  6
Continuous
370
    18
390
F
347
0
  0
LAYER
  5
3F9
330
2
100
AcDbSymbolTableRecord
100
AcDbLayerTableRecord
  2
Text
 70
     0
 62
   156
  6
Continuous
370
     9
390
F
347
0
1001
CHIEFARC-LNWT
1070
    10
  0
ENDTAB
  0
TABLE
  2
STYLE
  5
3
330
0
100
AcDbSymbolTable
 70
     1
  0
STYLE
  5
11
330
3
100
AcDbSymbolTableRecord
100
AcDbTextStyleTableRecord
  2
Standard
 70
     0
 40
0.0
 41
1.0
 50
0.0
 71
     0
 42
0.2
  3
txt
  4

  0
ENDTAB
  0
TABLE
  2
VIEW
  5
6
330
0
100
AcDbSymbolTable
 70
     0
  0
ENDTAB
  0
TABLE
  2
UCS
  5
7
330
0
100
AcDbSymbolTable
 70
     0
  0
ENDTAB
  0
TABLE
  2
APPID
  5
9
330
0
100
AcDbSymbolTable
 70
     7
  0
APPID
  5
12
330
9
100
AcDbSymbolTableRecord
100
AcDbRegAppTableRecord
  2
ACAD
 70
     0
  0
APPID
  5
2C0
330
9
100
AcDbSymbolTableRecord
100
AcDbRegAppTableRecord
  2
CHIEFARC-LNWT
 70
     0
  0
APPID
  5
3FB
330
9
100
AcDbSymbolTableRecord
100
AcDbRegAppTableRecord
  2
CHIEFARC_RTFBINARY
 70
     0
  0
APPID
  5
3FC
330
9
100
AcDbSymbolTableRecord
100
AcDbRegAppTableRecord
  2
CHIEFARC_SIMPLE_TEXT_BINARY
 70
     0
  0
APPID
  5
3FD
330
9
100
AcDbSymbolTableRecord
100
AcDbRegAppTableRecord
  2
CHIEFARC-WIDTHEXPANDED
 70
     0
  0
APPID
  5
3FE
330
9
100
AcDbSymbolTableRecord
100
AcDbRegAppTableRecord
  2
CHIEFARC_AUTOHEIGHT
 70
     0
  0
APPID
  5
3FF
330
9
100
AcDbSymbolTableRecord
100
AcDbRegAppTableRecord
  2
CHIEFARC_AUTOWIDTH
 70
     0
  0
ENDTAB
  0
TABLE
  2
DIMSTYLE
  5
A
330
0
100
AcDbSymbolTable
 70
     2
100
AcDbDimStyleTable
  0
DIMSTYLE
105
27
330
A
100
AcDbSymbolTableRecord
100
AcDbDimStyleTableRecord
  2
Standard
 70
     0
340
11
  0
DIMSTYLE
105
3B
330
A
100
AcDbSymbolTableRecord
100
AcDbDimStyleTableRecord
  2
CHIEF
 70
     0
 41
5.0
 42
3.0
 44
3.0
 49
3.0
 73
     0
 74
     0
140
6.0
143
1.0
147
0.5
171
     0
276
     2
277
     4
285
    12
340
11
  0
ENDTAB
  0
TABLE
  2
BLOCK_RECORD
  5
1
330
0
100
AcDbSymbolTable
 70
     6
  0
BLOCK_RECORD
  5
1F
330
1
100
AcDbSymbolTableRecord
100
AcDbBlockTableRecord
  2
*Model_Space
340
22
 70
     0
280
     1
281
     0
  0
BLOCK_RECORD
  5
1B
330
1
100
AcDbSymbolTableRecord
100
AcDbBlockTableRecord
  2
*Paper_Space
340
1E
 70
     0
280
     1
281
     0
  0
BLOCK_RECORD
  5
23
330
1
100
AcDbSymbolTableRecord
100
AcDbBlockTableRecord
  2
*Paper_Space0
340
26
 70
     0
280
     1
281
     0
  0
BLOCK_RECORD
  5
10F
330
1
100
AcDbSymbolTableRecord
100
AcDbBlockTableRecord
  2
block77
340
0
102
{BLKREFS
331
2C1
331
3C3
102
}
 70
     0
280
     1
281
     0
  0
BLOCK_RECORD
  5
2E9
330
1
100
AcDbSymbolTableRecord
100
AcDbBlockTableRecord
  2
block9_0
340
0
102
{BLKREFS
331
2EE
331
3F6
102
}
 70
     0
280
     1
281
     0
  0
BLOCK_RECORD
  5
3E5
330
1
100
AcDbSymbolTableRecord
100
AcDbBlockTableRecord
  2
block35_1
340
0
102
{BLKREFS
331
3F5
102
}
 70
     0
280
     1
281
     0
  0
BLOCK_RECORD
  5
3ED
330
1
100
AcDbSymbolTableRecord
100
AcDbBlockTableRecord
  2
Break_Line
340
0
102
{BLKREFS
331
3F1
331
3F2
331
412
102
}
 70
     0
280
     1
281
     0
  0
BLOCK_RECORD
  5
40A
330
1
100
AcDbSymbolTableRecord
100
AcDbBlockTableRecord
  2
block34_1
340
0
102
{BLKREFS
331
415
331
42B
102
}
 70
     0
280
     1
281
     0
  0
ENDTAB
  0
ENDSEC
  0
SECTION
  2
BLOCKS
  0
BLOCK
  5
20
330
1F
100
AcDbEntity
  8
0
100
AcDbBlockBegin
  2
*Model_Space
 70
     0
 10
0.0
 20
0.0
 30
0.0
  3
*Model_Space
  1

  0
ENDBLK
  5
21
330
1F
100
AcDbEntity
  8
0
100
AcDbBlockEnd
  0
BLOCK
  5
1C
330
1B
100
AcDbEntity
 67
     1
  8
0
100
AcDbBlockBegin
  2
*Paper_Space
 70
     0
 10
0.0
 20
0.0
 30
0.0
  3
*Paper_Space
  1

  0
ENDBLK
  5
1D
330
1B
100
AcDbEntity
 67
     1
  8
0
100
AcDbBlockEnd
  0
BLOCK
  5
24
330
23
100
AcDbEntity
  8
0
100
AcDbBlockBegin
  2
*Paper_Space0
 70
     0
 10
0.0
 20
0.0
 30
0.0
  3
*Paper_Space0
  1

  0
ENDBLK
  5
25
330
23
100
AcDbEntity
  8
0
100
AcDbBlockEnd
  0
BLOCK
  5
2BE
330
10F
100
AcDbEntity
  8
0
100
AcDbBlockBegin
  2
block77
 70
     0
 10
0.0
 20
0.0
 30
0.0
  3
block77
  1

  0
LINE
  5
110
330
10F
100
AcDbEntity
  8
0
 62
   252
370
     0
100
AcDbLine
 10
6.478845156593194
 20
3.133439319122425
 30
0.0
 11
6.719890510225646
 21
3.420705985292042
 31
0.0
  0
LINE
  5
111
330
10F
100
AcDbEntity
  8
0
 62
   252
370
     0
100
AcDbLine
 10
0.0000000000000009
 20
0.0
 30
0.0
 11
0.2410453536324526
 21
0.2872666661696161
 31
0.0
  0
LINE
  5
112
330
10F
100
AcDbEntity
  8
0
 62
   252
370
     0
100
AcDbLine
 10
2.892544243589427
 20
3.447199994035401
 30
0.0
 11
3.13358959722188
 21
3.734466660205017
 31
0.0
  0
LINE
  5
113
330
10F
100
AcDbEntity
  8
0
 62
   252
370
     0
100
AcDbLine
 10
5.785088487178855
 20
6.894399988070802
 30
0.0
 11
6.026133840811307
 21
7.181666654240419
 31
0.0
  0
LINE
  5
114
330
10F
100
AcDbEntity
  8
0
 62
   252
370
     0
100
AcDbLine
 10
-3.586300913003767
 20
0.3137606749129757
 30
0.0
 11
-3.345255559371315
 21
0.6010273410825923
 31
0.0
  0
LINE
  5
115
330
10F
100
AcDbEntity
  8
0
 62
   252
370
     0
100
AcDbLine
 10
-0.6937566694143407
 20
3.760960668948377
 30
0.0
 11
-0.4527113157818885
 21
4.048227335117994
 31
0.0
  0
LINE
  5
116
330
10F
100
AcDbEntity
  8
0
 62
   252
370
     0
100
AcDbLine
 10
2.198787574175086
 20
7.208160662983778
 30
0.0
 11
2.439832927807537
 21
7.495427329153393
 31
0.0
  0
LINE
  5
117
330
10F
100
AcDbEntity
  8
0
 62
   252
370
     0
100
AcDbLine
 10
5.091331817764512
 20
10.65536065701918
 30
0.0
 11
5.332377171396964
 21
10.94262732318879
 31
0.0
  0
LINE
  5
118
330
10F
100
AcDbEntity
  8
0
 62
   252
370
     0
100
AcDbLine
 10
-7.172601826007535
 20
0.6275213498259526
 30
0.0
 11
-6.931556472375083
 21
0.9147880159955692
 31
0.0
  0
LINE
  5
119
330
10F
100
AcDbEntity
  8
0
 62
   252
370
     0
100
AcDbLine
 10
-4.280057582418108
 20
4.074721343861353
 30
0.0
 11
-4.039012228785656
 21
4.36198801003097
 31
0.0
  0
LINE
  5
11A
330
10F
100
AcDbEntity
  8
0
 62
   252
370
     0
100
AcDbLine
 10
-1.38751333882868
 20
7.521921337896754
 30
0.0
 11
-1.146467985196227
 21
7.809188004066371
 31
0.0
  0
LINE
  5
11B
330
10F
100
AcDbEntity
  8
0
 62
   252
370
     0
100
AcDbLine
 10
1.505030904760748
 20
10.96912133193215
 30
0.0
 11
1.7460762583932
 21
11.25638799810177
 31
0.0
  0
LINE
  5
11C
330
10F
100
AcDbEntity
  8
0
 62
   252
370
     0
100
AcDbLine
 10
-7.866358495421875
 20
4.388482018774329
 30
0.0
 11
-7.625313141789422
 21
4.675748684943945
 31
0.0
  0
LINE
  5
11D
330
10F
100
AcDbEntity
  8
0
 62
   252
370
     0
100
AcDbLine
 10
-4.973814251832447
 20
7.835682012809729
 30
0.0
 11
-4.732768898199995
 21
8.122948678979345
 31
0.0
  0
LINE
  5
11E
330
10F
100
AcDbEntity
  8
0
 62
   252
370
     0
100
AcDbLine
 10
-2.08127000824302
 20
11.28288200684513
 30
0.0
 11
-1.840224654610568
 21
11.57014867301475
 31
0.0
  0
LINE
  5
11F
330
10F
100
AcDbEntity
  8
0
 62
   252
370
     0
100
AcDbLine
 10
-5.667570921246786
 20
11.59664268175811
 30
0.0
 11
-5.426525567614333
 21
11.88390934792772
 31
0.0
  0
LINE
  5
120
330
10F
100
AcDbEntity
  8
0
 62
   252
370
     0
100
AcDbLine
 10
-3.586300913130284
 20
0.3137606738915695
 30
0.0
 11
-3.287442503702761
 21
0.2876139510672721
 31
0.0
  0
LINE
  5
121
330
10F
100
AcDbEntity
  8
0
 62
   252
370
     0
100
AcDbLine
 10
-7.172601826260569
 20
0.6275213477831391
 30
0.0
 11
-6.873743416833045
 21
0.6013746249588415
 31
0.0
  0
LINE
  5
122
330
10F
100
AcDbEntity
  8
0
 62
   252
370
     0
100
AcDbLine
 10
6.478845158195566
 20
3.133439320716919
 30
0.0
 11
6.77770356762309
 21
3.107292597892621
 31
0.0
  0
LINE
  5
123
330
10F
100
AcDbEntity
  8
0
 62
   252
370
     0
100
AcDbLine
 10
2.892544245065281
 20
3.447199994608488
 30
0.0
 11
3.191402654492805
 21
3.421053271784191
 31
0.0
  0
LINE
  5
124
330
10F
100
AcDbEntity
  8
0
 62
   252
370
     0
100
AcDbLine
 10
-0.6937566680650025
 20
3.760960668500058
 30
0.0
 11
-0.3948982586374785
 21
3.73481394567576
 31
0.0
  0
LINE
  5
125
330
10F
100
AcDbEntity
  8
0
 62
   252
370
     0
100
AcDbLine
 10
-4.280057581195287
 20
4.074721342391628
 30
0.0
 11
-3.981199171767762
 21
4.04857461956733
 31
0.0
  0
LINE
  5
126
330
10F
100
AcDbEntity
  8
0
 62
   252
370
     0
100
AcDbLine
 10
-7.866358494325571
 20
4.388482016283198
 30
0.0
 11
-7.567500084898047
 21
4.3623352934589
 31
0.0
  0
LINE
  5
127
330
10F
100
AcDbEntity
  8
0
 62
   252
370
     0
100
AcDbLine
 10
5.785088490130565
 20
6.894399989216979
 30
0.0
 11
6.083946899558088
 21
6.868253266392681
 31
0.0
  0
LINE
  5
128
330
10F
100
AcDbEntity
  8
0
 62
   252
370
     0
100
AcDbLine
 10
2.198787577000281
 20
7.208160663108549
 30
0.0
 11
2.497645986427804
 21
7.182013940284252
 31
0.0
  0
LINE
  5
129
330
10F
100
AcDbEntity
  8
0
 62
   252
370
     0
100
AcDbLine
 10
-1.387513336130003
 20
7.521921337000117
 30
0.0
 11
-1.088654926702479
 21
7.49577461417582
 31
0.0
  0
LINE
  5
12A
330
10F
100
AcDbEntity
  8
0
 62
   252
370
     0
100
AcDbLine
 10
-4.973814249260286
 20
7.835682010891687
 30
0.0
 11
-4.674955839832762
 21
7.80953528806739
 31
0.0
  0
LINE
  5
12B
330
10F
100
AcDbEntity
  8
0
 62
   252
370
     0
100
AcDbLine
 10
5.091331822065566
 20
10.65536065771704
 30
0.0
 11
5.39019023149309
 21
10.62921393489274
 31
0.0
  0
LINE
  5
12C
330
10F
100
AcDbEntity
  8
0
 62
   252
370
     0
100
AcDbLine
 10
1.505030908935283
 20
10.96912133160861
 30
0.0
 11
1.803889318362807
 21
10.94297460878431
 31
0.0
  0
LINE
  5
12D
330
10F
100
AcDbEntity
  8
0
 62
   252
370
     0
100
AcDbLine
 10
-2.081270004195
 20
11.28288200550018
 30
0.0
 11
-1.782411594767478
 21
11.25673528267588
 31
0.0
  0
LINE
  5
12E
330
10F
100
AcDbEntity
  8
0
 62
   252
370
     0
100
AcDbLine
 10
-5.667570917325286
 20
11.59664267939175
 30
0.0
 11
-5.36871250789776
 21
11.57049595656745
 31
0.0
  0
LINE
  5
12F
330
10F
100
AcDbEntity
  8
0
 62
   252
370
     0
100
AcDbLine
 10
-6.87374287913955
 20
0.6013802822192841
 30
0.0
 11
-6.931555688393342
 21
0.9147937066559014
 31
0.0
  0
LINE
  5
130
330
10F
100
AcDbEntity
  8
0
 62
   252
370
     0
100
AcDbLine
 10
-7.567496610139214
 20
4.362341483633695
 30
0.0
 11
-7.625309419393007
 21
4.675754908070312
 31
0.0
  0
LINE
  5
131
330
10F
100
AcDbEntity
  8
0
 62
   252
370
     0
100
AcDbLine
 10
-3.287442239569773
 20
0.2876167911096422
 30
0.0
 11
-3.345255048823566
 21
0.6010302155462593
 31
0.0
  0
LINE
  5
132
330
10F
100
AcDbEntity
  8
0
 62
   252
370
     0
100
AcDbLine
 10
-3.98119597056944
 20
4.048577992524052
 30
0.0
 11
-4.039008779823233
 21
4.361991416960669
 31
0.0
  0
LINE
  5
133
330
10F
100
AcDbEntity
  8
0
 62
   252
370
     0
100
AcDbLine
 10
-4.674949701569107
 20
7.809539193938461
 30
0.0
 11
-4.732762510822899
 21
8.122952618375077
 31
0.0
  0
LINE
  5
134
330
10F
100
AcDbEntity
  8
0
 62
   252
370
     0
100
AcDbLine
 10
-5.368703432568774
 20
11.57050039535287
 30
0.0
 11
-5.426516241822566
 21
11.88391381978949
 31
0.0
  0
LINE
  5
135
330
10F
100
AcDbEntity
  8
0
 62
   252
370
     0
100
AcDbLine
 10
0.2940353322503233
 20
-0.0000000000000001
 30
0.0
 11
0.241045590746208
 21
0.2872667244366173
 31
0.0
  0
LINE
  5
136
330
10F
100
AcDbEntity
  8
0
 62
   252
370
     0
100
AcDbLine
 10
-0.3948953309996663
 20
3.734814501414411
 30
0.0
 11
-0.4527081402534586
 21
4.048227925851028
 31
0.0
  0
LINE
  5
137
330
10F
100
AcDbEntity
  8
0
 62
   252
370
     0
100
AcDbLine
 10
-1.088649061999333
 20
7.49577570282882
 30
0.0
 11
-1.146461871253125
 21
7.809189127265437
 31
0.0
  0
LINE
  5
138
330
10F
100
AcDbEntity
  8
0
 62
   252
370
     0
100
AcDbLine
 10
-1.782402792999
 20
11.25673690424323
 30
0.0
 11
-1.840215602252792
 21
11.57015032867985
 31
0.0
  0
LINE
  5
139
330
10F
100
AcDbEntity
  8
0
 62
   252
370
     0
100
AcDbLine
 10
3.191405308570108
 20
3.421051010304768
 30
0.0
 11
3.133592499316315
 21
3.734464434741386
 31
0.0
  0
LINE
  5
13A
330
10F
100
AcDbEntity
  8
0
 62
   252
370
     0
100
AcDbLine
 10
2.497651577570442
 20
7.182012211719179
 30
0.0
 11
2.439838768316649
 21
7.495425636155796
 31
0.0
  0
LINE
  5
13B
330
10F
100
AcDbEntity
  8
0
 62
   252
370
     0
100
AcDbLine
 10
1.803897846570776
 20
10.94297341313359
 30
0.0
 11
1.746085037316983
 21
11.2563868375702
 31
0.0
  0
LINE
  5
13C
330
10F
100
AcDbEntity
  8
0
 62
   252
370
     0
100
AcDbLine
 10
6.777705948139883
 20
3.107287519195126
 30
0.0
 11
6.71989313888609
 21
3.420700943631743
 31
0.0
  0
LINE
  5
13D
330
10F
100
AcDbEntity
  8
0
 62
   252
370
     0
100
AcDbLine
 10
6.083952217140215
 20
6.868248720609536
 30
0.0
 11
6.026139407886423
 21
7.181662145046153
 31
0.0
  0
LINE
  5
13E
330
10F
100
AcDbEntity
  8
0
 62
   252
370
     0
100
AcDbLine
 10
5.390198486140548
 20
10.62920992202394
 30
0.0
 11
5.332385676886757
 21
10.94262334646056
 31
0.0
  0
LINE
  5
13F
330
10F
100
AcDbEntity
  8
0
 62
   252
370
     0
100
AcDbLine
 10
5.336205243128221
 20
0.1724049283549099
 30
0.0
 11
5.725647720284265
 21
0.578287678649333
 31
0.0
  0
LINE
  5
140
330
10F
100
AcDbEntity
  8
0
 62
   252
370
     0
100
AcDbLine
 10
-0.0000000000000004
 20
1.0
 30
0.0
 11
0.3894424771560425
 21
1.405882750294423
 31
0.0
  0
LINE
  5
141
330
10F
100
AcDbEntity
  8
0
 62
   252
370
     0
100
AcDbLine
 10
4.673309725872516
 20
5.870593003533076
 30
0.0
 11
5.062752203028559
 21
6.2764757538275
 31
0.0
  0
LINE
  5
142
330
10F
100
AcDbEntity
  8
0
 62
   252
370
     0
100
AcDbLine
 10
-5.336205243128222
 20
1.82759507164509
 30
0.0
 11
-4.94676276597218
 21
2.233477821939513
 31
0.0
  0
LINE
  5
143
330
10F
100
AcDbEntity
  8
0
 62
   252
370
     0
100
AcDbLine
 10
-0.6628955172557056
 20
6.698188075178168
 30
0.0
 11
-0.2734530400996631
 21
7.10407082547259
 31
0.0
  0
LINE
  5
144
330
10F
100
AcDbEntity
  8
0
 62
   252
370
     0
100
AcDbLine
 10
4.010414208616809
 20
11.56878107871124
 30
0.0
 11
4.399856685772852
 21
11.97466382900567
 31
0.0
  0
LINE
  5
145
330
10F
100
AcDbEntity
  8
0
 62
   252
370
     0
100
AcDbLine
 10
-5.999100760383929
 20
7.525783146823257
 30
0.0
 11
-5.609658283227886
 21
7.93166589711768
 31
0.0
  0
LINE
  5
146
330
10F
100
AcDbEntity
  8
0
 62
   252
370
     0
100
AcDbLine
 10
-4.891520773663226
 20
1.758631869807885
 30
0.0
 11
-4.946761695995338
 21
2.233480919281475
 31
0.0
  0
LINE
  5
147
330
10F
100
AcDbEntity
  8
0
 62
   252
370
     0
100
AcDbLine
 10
-5.554411744582934
 20
7.456819629117981
 30
0.0
 11
-5.609652666915048
 21
7.931668678591569
 31
0.0
  0
LINE
  5
148
330
10F
100
AcDbEntity
  8
0
 62
   252
370
     0
100
AcDbLine
 10
0.4446837250000002
 20
0.9310334649999997
 30
0.0
 11
0.3894428026678868
 21
1.405882514473589
 31
0.0
  0
LINE
  5
149
330
10F
100
AcDbEntity
  8
0
 62
   252
370
     0
100
AcDbLine
 10
-0.2182072459197085
 20
6.629221224310095
 30
0.0
 11
-0.2734481682518219
 21
7.104070273783684
 31
0.0
  0
LINE
  5
14A
330
10F
100
AcDbEntity
  8
0
 62
   252
370
     0
100
AcDbLine
 10
5.780888223663226
 20
0.1034350601921146
 30
0.0
 11
5.725647301331112
 21
0.5782841096657036
 31
0.0
  0
LINE
  5
14B
330
10F
100
AcDbEntity
  8
0
 62
   252
370
     0
100
AcDbLine
 10
5.117997252743516
 20
5.801622819502208
 30
0.0
 11
5.062756330411403
 21
6.276471868975797
 31
0.0
  0
LINE
  5
14C
330
10F
100
AcDbEntity
  8
0
 62
   252
370
     0
100
AcDbLine
 10
4.455106281823808
 20
11.4998105788123
 30
0.0
 11
4.399865359491693
 21
11.97465962828589
 31
0.0
  0
LINE
  5
14D
330
10F
100
AcDbEntity
  8
0
 62
   252
370
     0
100
AcDbLine
 10
5.33620524341954
 20
0.1724049298709921
 30
0.0
 11
5.780889013704502
 21
0.1034386740269082
 31
0.0
  0
LINE
  5
14E
330
10F
100
AcDbEntity
  8
0
 62
   252
370
     0
100
AcDbLine
 10
0.0000000000000022
 20
0.9999999999999997
 30
0.0
 11
0.4446837702849638
 21
0.9310337441559156
 31
0.0
  0
LINE
  5
14F
330
10F
100
AcDbEntity
  8
0
 62
   252
370
     0
100
AcDbLine
 10
-5.336205243419535
 20
1.827595070129007
 30
0.0
 11
-4.891521473134574
 21
1.758628814284923
 31
0.0
  0
LINE
  5
150
330
10F
100
AcDbEntity
  8
0
 62
   252
370
     0
100
AcDbLine
 10
4.673309725668136
 20
5.870593004626625
 30
0.0
 11
5.117993495953097
 21
5.801626748782541
 31
0.0
  0
LINE
  5
151
330
10F
100
AcDbEntity
  8
0
 62
   252
370
     0
100
AcDbLine
 10
-0.6628955177514002
 20
6.698188074755633
 30
0.0
 11
-0.2182117474664396
 21
6.629221818911548
 31
0.0
  0
LINE
  5
152
330
10F
100
AcDbEntity
  8
0
 62
   252
370
     0
100
AcDbLine
 10
-5.99910076117094
 20
7.525783144884639
 30
0.0
 11
-5.554416990885978
 21
7.456816889040556
 31
0.0
  0
LINE
  5
153
330
10F
100
AcDbEntity
  8
0
 62
   252
370
     0
100
AcDbLine
 10
4.010414207916733
 20
11.56878107938225
 30
0.0
 11
4.455097978201693
 21
11.49981482353817
 31
0.0
  0
LINE
  5
154
330
10F
100
AcDbEntity
  8
0
 62
   252
370
     0
100
AcDbLine
 10
7.685647179829717
 20
0.3495613196271584
 30
0.0
 11
7.999999999999998
 21
0.4702300616024857
 31
0.0
  0
LINE
  5
155
330
10F
100
AcDbEntity
  8
0
 62
   252
370
     0
100
AcDbLine
 10
0.4999999999999998
 20
0.7499999999999997
 30
0.0
 11
0.8500926599364504
 21
0.8843879810794874
 31
0.0
  0
LINE
  5
156
330
10F
100
AcDbEntity
  8
0
 62
   252
370
     0
100
AcDbLine
 10
4.701111919237406
 20
2.36265577295385
 30
0.0
 11
5.051204579173858
 21
2.497043754033338
 31
0.0
  0
LINE
  5
157
330
10F
100
AcDbEntity
  8
0
 62
   252
370
     0
100
AcDbLine
 10
-6.685647179829717
 20
1.150438680372842
 30
0.0
 11
-6.335554519893266
 21
1.28482666145233
 31
0.0
  0
LINE
  5
158
330
10F
100
AcDbEntity
  8
0
 62
   252
370
     0
100
AcDbLine
 10
-2.484535260592308
 20
2.763094453326694
 30
0.0
 11
-2.134442600655857
 21
2.897482434406181
 31
0.0
  0
LINE
  5
159
330
10F
100
AcDbEntity
  8
0
 62
   252
370
     0
100
AcDbLine
 10
1.716576658645099
 20
4.375750226280545
 30
0.0
 11
2.06666931858155
 21
4.510138207360033
 31
0.0
  0
LINE
  5
15A
330
10F
100
AcDbEntity
  8
0
 62
   252
370
     0
100
AcDbLine
 10
5.917688577882507
 20
5.988405999234395
 30
0.0
 11
6.267781237818959
 21
6.122793980313884
 31
0.0
  0
LINE
  5
15B
330
10F
100
AcDbEntity
  8
0
 62
   252
370
     0
100
AcDbLine
 10
-5.469070521184618
 20
4.776188906653387
 30
0.0
 11
-5.118977861248167
 21
4.910576887732875
 31
0.0
  0
LINE
  5
15C
330
10F
100
AcDbEntity
  8
0
 62
   252
370
     0
100
AcDbLine
 10
-1.267958601947208
 20
6.388844679607239
 30
0.0
 11
-0.9178659420107573
 21
6.523232660686727
 31
0.0
  0
LINE
  5
15D
330
10F
100
AcDbEntity
  8
0
 62
   252
370
     0
100
AcDbLine
 10
2.9331533172902
 20
8.001500452561089
 30
0.0
 11
3.283245977226652
 21
8.135888433640577
 31
0.0
  0
LINE
  5
15E
330
10F
100
AcDbEntity
  8
0
 62
   252
370
     0
100
AcDbLine
 10
7.134265236527611
 20
9.61415622551494
 30
0.0
 11
7.484357896464061
 21
9.748544206594428
 31
0.0
  0
LINE
  5
15F
330
10F
100
AcDbEntity
  8
0
 62
   252
370
     0
100
AcDbLine
 10
-4.252493862539517
 20
8.401939132933933
 30
0.0
 11
-3.902401202603067
 21
8.53632711401342
 31
0.0
  0
LINE
  5
160
330
10F
100
AcDbEntity
  8
0
 62
   252
370
     0
100
AcDbLine
 10
-0.0513819433021085
 20
10.01459490588779
 30
0.0
 11
0.2987107166343415
 21
10.14898288696727
 31
0.0
  0
LINE
  5
161
330
10F
100
AcDbEntity
  8
0
 62
   252
370
     0
100
AcDbLine
 10
4.149729975935299
 20
11.62725067884164
 30
0.0
 11
4.49982263587175
 21
11.76163865992112
 31
0.0
  0
LINE
  5
162
330
10F
100
AcDbEntity
  8
0
 62
   252
370
     0
100
AcDbLine
 10
-7.237029123131826
 20
10.41503358626063
 30
0.0
 11
-6.886936463195376
 21
10.54942156734012
 31
0.0
  0
LINE
  5
163
330
10F
100
AcDbEntity
  8
0
 62
   252
370
     0
100
AcDbLine
 10
-6.685647182004208
 20
1.150438679755115
 30
0.0
 11
-6.436935910237697
 21
0.9826808087138909
 31
0.0
  0
LINE
  5
164
330
10F
100
AcDbEntity
  8
0
 62
   252
370
     0
100
AcDbLine
 10
0.4999999999999993
 20
0.7500000000000001
 30
0.0
 11
0.7487112717665119
 21
0.5822421289587759
 31
0.0
  0
LINE
  5
165
330
10F
100
AcDbEntity
  8
0
 62
   252
370
     0
100
AcDbLine
 10
-2.484535261198149
 20
2.763094452494691
 30
0.0
 11
-2.235823989431637
 21
2.595336581453466
 31
0.0
  0
LINE
  5
166
330
10F
100
AcDbEntity
  8
0
 62
   252
370
     0
100
AcDbLine
 10
-5.469070522396298
 20
4.776188904989382
 30
0.0
 11
-5.220359250629786
 21
4.608431033948157
 31
0.0
  0
LINE
  5
167
330
10F
100
AcDbEntity
  8
0
 62
   252
370
     0
100
AcDbLine
 10
7.685647182004207
 20
0.3495613202448855
 30
0.0
 11
7.93435845377072
 21
0.1818034492036614
 31
0.0
  0
LINE
  5
168
330
10F
100
AcDbEntity
  8
0
 62
   252
370
     0
100
AcDbLine
 10
4.701111920806058
 20
2.362655772739575
 30
0.0
 11
4.949823192572572
 21
2.194897901698351
 31
0.0
  0
LINE
  5
169
330
10F
100
AcDbEntity
  8
0
 62
   252
370
     0
100
AcDbLine
 10
1.71657665960791
 20
4.375750225234264
 30
0.0
 11
1.965287931374422
 21
4.20799235419304
 31
0.0
  0
LINE
  5
16A
330
10F
100
AcDbEntity
  8
0
 62
   252
370
     0
100
AcDbLine
 10
-1.267958601590238
 20
6.388844677728954
 30
0.0
 11
-1.019247329823727
 21
6.22108680668773
 31
0.0
  0
LINE
  5
16B
330
10F
100
AcDbEntity
  8
0
 62
   252
370
     0
100
AcDbLine
 10
-4.252493862788388
 20
8.401939130223644
 30
0.0
 11
-4.003782591021874
 21
8.234181259182419
 31
0.0
  0
LINE
  5
16C
330
10F
100
AcDbEntity
  8
0
 62
   252
370
     0
100
AcDbLine
 10
-7.237029123986536
 20
10.41503358271833
 30
0.0
 11
-6.988317852220023
 21
10.24727571167711
 31
0.0
  0
LINE
  5
16D
330
10F
100
AcDbEntity
  8
0
 62
   252
370
     0
100
AcDbLine
 10
5.917688580413972
 20
5.988405997973836
 30
0.0
 11
6.166399852180485
 21
5.820648126932612
 31
0.0
  0
LINE
  5
16E
330
10F
100
AcDbEntity
  8
0
 62
   252
370
     0
100
AcDbLine
 10
2.933153319215824
 20
8.001500450468527
 30
0.0
 11
3.181864590982335
 21
7.833742579427302
 31
0.0
  0
LINE
  5
16F
330
10F
100
AcDbEntity
  8
0
 62
   252
370
     0
100
AcDbLine
 10
-0.051381941982326
 20
10.01459490296322
 30
0.0
 11
0.1973293297841865
 21
9.846837031921991
 31
0.0
  0
LINE
  5
170
330
10F
100
AcDbEntity
  8
0
 62
   252
370
     0
100
AcDbLine
 10
-2.994866045535307
 20
12.0
 30
0.0
 11
-2.787205931413961
 21
11.85993148441668
 31
0.0
  0
LINE
  5
171
330
10F
100
AcDbEntity
  8
0
 62
   252
370
     0
100
AcDbLine
 10
7.134265240021882
 20
9.614156223208104
 30
0.0
 11
7.382976511788395
 21
9.446398352166879
 31
0.0
  0
LINE
  5
172
330
10F
100
AcDbEntity
  8
0
 62
   252
370
     0
100
AcDbLine
 10
4.149729978823734
 20
11.6272506757028
 30
0.0
 11
4.398441250590245
 21
11.45949280466157
 31
0.0
  0
LINE
  5
173
330
10F
100
AcDbEntity
  8
0
 62
   252
370
     0
100
AcDbLine
 10
7.934357964029763
 20
0.1817976696853946
 30
0.0
 11
7.999999999999998
 21
0.3774294113150187
 31
0.0
  0
LINE
  5
174
330
10F
100
AcDbEntity
  8
0
 62
   252
370
     0
100
AcDbLine
 10
4.949824307907449
 20
2.194894453549761
 30
0.0
 11
5.051205928890212
 21
2.497040217143775
 31
0.0
  0
LINE
  5
175
330
10F
100
AcDbEntity
  8
0
 62
   252
370
     0
100
AcDbLine
 10
6.166403794692586
 20
5.820643720963889
 30
0.0
 11
6.267785415675348
 21
6.122789484557904
 31
0.0
  0
LINE
  5
176
330
10F
100
AcDbEntity
  8
0
 62
   252
370
     0
100
AcDbLine
 10
7.382983281477721
 20
9.446392988378019
 30
0.0
 11
7.484364902460484
 21
9.748538751972035
 31
0.0
  0
LINE
  5
177
330
10F
100
AcDbEntity
  8
0
 62
   252
370
     0
100
AcDbLine
 10
0.748711165
 20
0.5822419700000002
 30
0.0
 11
0.8500927859827627
 21
0.8843877335940143
 31
0.0
  0
LINE
  5
178
330
10F
100
AcDbEntity
  8
0
 62
   252
370
     0
100
AcDbLine
 10
1.965290651785136
 20
4.207991237414129
 30
0.0
 11
2.066672272767899
 21
4.510137001008144
 31
0.0
  0
LINE
  5
179
330
10F
100
AcDbEntity
  8
0
 62
   252
370
     0
100
AcDbLine
 10
3.181870138570273
 20
7.83374050482826
 30
0.0
 11
3.283251759553035
 21
8.135886268422274
 31
0.0
  0
LINE
  5
17A
330
10F
100
AcDbEntity
  8
0
 62
   252
370
     0
100
AcDbLine
 10
4.398449625355409
 20
11.45948977224239
 30
0.0
 11
4.499831246338172
 21
11.7616355358364
 31
0.0
  0
LINE
  5
17B
330
10F
100
AcDbEntity
  8
0
 62
   252
370
     0
100
AcDbLine
 10
-2.235822491122312
 20
2.595338753864367
 30
0.0
 11
-2.134440870139549
 21
2.897484517458381
 31
0.0
  0
LINE
  5
17C
330
10F
100
AcDbEntity
  8
0
 62
   252
370
     0
100
AcDbLine
 10
-1.019243004337176
 20
6.221088021278495
 30
0.0
 11
-0.9178613833544131
 21
6.523233784872509
 31
0.0
  0
LINE
  5
17D
330
10F
100
AcDbEntity
  8
0
 62
   252
370
     0
100
AcDbLine
 10
0.19733648244796
 20
9.846837288692624
 30
0.0
 11
0.298718103430723
 21
10.14898305228664
 31
0.0
  0
LINE
  5
17E
330
10F
100
AcDbEntity
  8
0
 62
   252
370
     0
100
AcDbLine
 10
-6.436935634029764
 20
0.9826862703146055
 30
0.0
 11
-6.335554013047001
 21
1.28483203390862
 31
0.0
  0
LINE
  5
17F
330
10F
100
AcDbEntity
  8
0
 62
   252
370
     0
100
AcDbLine
 10
-5.220356147244627
 20
4.608435537728734
 30
0.0
 11
-5.118974526261864
 21
4.91058130132275
 31
0.0
  0
LINE
  5
180
330
10F
100
AcDbEntity
  8
0
 62
   252
370
     0
100
AcDbLine
 10
-4.003776660459492
 20
8.234184805142863
 30
0.0
 11
-3.902395039476728
 21
8.536330568736878
 31
0.0
  0
LINE
  5
181
330
10F
100
AcDbEntity
  8
0
 62
   252
370
     0
100
AcDbLine
 10
-2.787197173674355
 20
11.85993407255699
 30
0.0
 11
-2.7401996232215
 21
12.0
 31
0.0
  0
LINE
  5
182
330
10F
100
AcDbEntity
  8
0
 62
   252
370
     0
100
AcDbLine
 10
-6.988310316581804
 20
10.24728158900723
 30
0.0
 11
-6.886928695599041
 21
10.54942735260125
 31
0.0
  0
LINE
  5
183
330
10F
100
AcDbEntity
  8
0
 62
   252
370
     0
100
AcDbLine
 10
7.689650689280422
 20
1.047027471869357
 30
0.0
 11
7.689650689280422
 21
1.047027471869357
 31
0.0
  0
LINE
  5
184
330
10F
100
AcDbEntity
  8
0
 62
   252
370
     0
100
AcDbLine
 10
7.842712527850138
 20
1.164475951433579
 30
0.0
 11
7.842712527850138
 21
1.164475951433579
 31
0.0
  0
LINE
  5
185
330
10F
100
AcDbEntity
  8
0
 62
   252
370
     0
100
AcDbLine
 10
7.999999999999998
 20
1.285166873685156
 30
0.0
 11
7.999999999999998
 21
1.285166873685156
 31
0.0
  0
LINE
  5
186
330
10F
100
AcDbEntity
  8
0
 62
   252
370
     0
100
AcDbLine
 10
4.216758614585661
 20
-0.0000000000000009
 30
0.0
 11
4.216758614585661
 21
-0.0000000000000009
 31
0.0
  0
LINE
  5
187
330
10F
100
AcDbEntity
  8
0
 62
   252
370
     0
100
AcDbLine
 10
4.663446878081391
 20
0.3427559597937301
 30
0.0
 11
4.663446878081391
 21
0.3427559597937301
 31
0.0
  0
LINE
  5
188
330
10F
100
AcDbEntity
  8
0
 62
   252
370
     0
100
AcDbLine
 10
5.122467026152157
 20
0.6949745074345274
 30
0.0
 11
5.122467026152157
 21
0.6949745074345274
 31
0.0
  0
LINE
  5
189
330
10F
100
AcDbEntity
  8
0
 62
   252
370
     0
100
AcDbLine
 10
7.750449965866874
 20
2.711496741025914
 30
0.0
 11
7.750449965866874
 21
2.711496741025914
 31
0.0
  0
LINE
  5
18A
330
10F
100
AcDbEntity
  8
0
 62
   252
370
     0
100
AcDbLine
 10
7.873526079524058
 20
2.805936364610637
 30
0.0
 11
7.873526079524058
 21
2.805936364610637
 31
0.0
  0
LINE
  5
18B
330
10F
100
AcDbEntity
  8
0
 62
   252
370
     0
100
AcDbLine
 10
7.999999999999998
 20
2.90298321706733
 30
0.0
 11
7.999999999999998
 21
2.90298321706733
 31
0.0
  0
LINE
  5
18C
330
10F
100
AcDbEntity
  8
0
 62
   252
370
     0
100
AcDbLine
 10
2.108379307292831
 20
-0.0000000000000005
 30
0.0
 11
2.108379307292831
 21
-0.0000000000000005
 31
0.0
  0
LINE
  5
18D
330
10F
100
AcDbEntity
  8
0
 62
   252
370
     0
100
AcDbLine
 10
3.624889383715408
 20
1.163659109181079
 30
0.0
 11
3.624889383715408
 21
1.163659109181079
 31
0.0
  0
LINE
  5
18E
330
10F
100
AcDbEntity
  8
0
 62
   252
370
     0
100
AcDbLine
 10
5.18326630273861
 20
2.359443776591084
 30
0.0
 11
5.18326630273861
 21
2.359443776591084
 31
0.0
  0
LINE
  5
18F
330
10F
100
AcDbEntity
  8
0
 62
   252
370
     0
100
AcDbLine
 10
7.811249242453327
 20
4.375966010182471
 30
0.0
 11
7.811249242453327
 21
4.375966010182471
 31
0.0
  0
LINE
  5
190
330
10F
100
AcDbEntity
  8
0
 62
   252
370
     0
100
AcDbLine
 10
7.904339631197979
 20
4.447396777787695
 30
0.0
 11
7.904339631197979
 21
4.447396777787695
 31
0.0
  0
LINE
  5
191
330
10F
100
AcDbEntity
  8
0
 62
   252
370
     0
100
AcDbLine
 10
7.999999999999999
 20
4.520799560449506
 30
0.0
 11
7.999999999999999
 21
4.520799560449506
 31
0.0
  0
LINE
  5
192
330
10F
100
AcDbEntity
  8
0
 62
   252
370
     0
100
AcDbLine
 10
0.0
 20
0.0
 30
0.0
 11
0.0
 21
0.0
 31
0.0
  0
LINE
  5
193
330
10F
100
AcDbEntity
  8
0
 62
   252
370
     0
100
AcDbLine
 10
2.586331889349426
 20
1.984562258568429
 30
0.0
 11
2.586331889349426
 21
1.984562258568429
 31
0.0
  0
LINE
  5
194
330
10F
100
AcDbEntity
  8
0
 62
   252
370
     0
100
AcDbLine
 10
5.244065579325063
 20
4.023913045747642
 30
0.0
 11
5.244065579325063
 21
4.023913045747642
 31
0.0
  0
LINE
  5
195
330
10F
100
AcDbEntity
  8
0
 62
   252
370
     0
100
AcDbLine
 10
7.87204851903978
 20
6.04043527933903
 30
0.0
 11
7.87204851903978
 21
6.04043527933903
 31
0.0
  0
LINE
  5
196
330
10F
100
AcDbEntity
  8
0
 62
   252
370
     0
100
AcDbLine
 10
7.9351531828719
 20
6.088857190964755
 30
0.0
 11
7.9351531828719
 21
6.088857190964755
 31
0.0
  0
LINE
  5
197
330
10F
100
AcDbEntity
  8
0
 62
   252
370
     0
100
AcDbLine
 10
7.999999999999999
 20
6.138615903831681
 30
0.0
 11
7.999999999999999
 21
6.138615903831681
 31
0.0
  0
LINE
  5
198
330
10F
100
AcDbEntity
  8
0
 62
   252
370
     0
100
AcDbLine
 10
0.0607992765864531
 20
1.664469269156557
 30
0.0
 11
0.0607992765864531
 21
1.664469269156557
 31
0.0
  0
LINE
  5
199
330
10F
100
AcDbEntity
  8
0
 62
   252
370
     0
100
AcDbLine
 10
2.647131165935879
 20
3.649031527724986
 30
0.0
 11
2.647131165935879
 21
3.649031527724986
 31
0.0
  0
LINE
  5
19A
330
10F
100
AcDbEntity
  8
0
 62
   252
370
     0
100
AcDbLine
 10
5.304864855911516
 20
5.6883823149042
 30
0.0
 11
5.304864855911516
 21
5.6883823149042
 31
0.0
  0
LINE
  5
19B
330
10F
100
AcDbEntity
  8
0
 62
   252
370
     0
100
AcDbLine
 10
7.932847795626233
 20
7.704904548495588
 30
0.0
 11
7.932847795626233
 21
7.704904548495588
 31
0.0
  0
LINE
  5
19C
330
10F
100
AcDbEntity
  8
0
 62
   252
370
     0
100
AcDbLine
 10
7.965966734545821
 20
7.730317604141814
 30
0.0
 11
7.965966734545821
 21
7.730317604141814
 31
0.0
  0
LINE
  5
19D
330
10F
100
AcDbEntity
  8
0
 62
   252
370
     0
100
AcDbLine
 10
7.999999999999999
 20
7.756432247213858
 30
0.0
 11
7.999999999999999
 21
7.756432247213858
 31
0.0
  0
LINE
  5
19E
330
10F
100
AcDbEntity
  8
0
 62
   252
370
     0
100
AcDbLine
 10
-4.216758614585659
 20
0.0000000000000009
 30
0.0
 11
-4.216758614585659
 21
0.0000000000000009
 31
0.0
  0
LINE
  5
19F
330
10F
100
AcDbEntity
  8
0
 62
   252
370
     0
100
AcDbLine
 10
-3.373215500603367
 20
0.6472733968824258
 30
0.0
 11
-3.373215500603367
 21
0.6472733968824258
 31
0.0
  0
LINE
  5
1A0
330
10F
100
AcDbEntity
  8
0
 62
   252
370
     0
100
AcDbLine
 10
-2.50638438654181
 20
1.312416304721727
 30
0.0
 11
-2.50638438654181
 21
1.312416304721727
 31
0.0
  0
LINE
  5
1A1
330
10F
100
AcDbEntity
  8
0
 62
   252
370
     0
100
AcDbLine
 10
0.1215985531729071
 20
3.328938538313115
 30
0.0
 11
0.1215985531729071
 21
3.328938538313115
 31
0.0
  0
LINE
  5
1A2
330
10F
100
AcDbEntity
  8
0
 62
   252
370
     0
100
AcDbLine
 10
2.707930442522334
 20
5.313500796881544
 30
0.0
 11
2.707930442522334
 21
5.313500796881544
 31
0.0
  0
LINE
  5
1A3
330
10F
100
AcDbEntity
  8
0
 62
   252
370
     0
100
AcDbLine
 10
5.365664132497971
 20
7.352851584060758
 30
0.0
 11
5.365664132497971
 21
7.352851584060758
 31
0.0
  0
LINE
  5
1A4
330
10F
100
AcDbEntity
  8
0
 62
   252
370
     0
100
AcDbLine
 10
7.993647072212688
 20
9.369373817652146
 30
0.0
 11
7.993647072212688
 21
9.369373817652146
 31
0.0
  0
LINE
  5
1A5
330
10F
100
AcDbEntity
  8
0
 62
   252
370
     0
100
AcDbLine
 10
7.996780286219744
 20
9.371778017318874
 30
0.0
 11
7.996780286219744
 21
9.371778017318874
 31
0.0
  0
LINE
  5
1A6
330
10F
100
AcDbEntity
  8
0
 62
   252
370
     0
100
AcDbLine
 10
8.0
 20
9.374248590596032
 30
0.0
 11
8.0
 21
9.374248590596032
 31
0.0
  0
LINE
  5
1A7
330
10F
100
AcDbEntity
  8
0
 62
   252
370
     0
100
AcDbLine
 10
-6.325137921878492
 20
0.0000000000000014
 30
0.0
 11
-6.325137921878492
 21
0.0000000000000014
 31
0.0
  0
LINE
  5
1A8
330
10F
100
AcDbEntity
  8
0
 62
   252
370
     0
100
AcDbLine
 10
-4.411772994969351
 20
1.468176546269776
 30
0.0
 11
-4.411772994969351
 21
1.468176546269776
 31
0.0
  0
LINE
  5
1A9
330
10F
100
AcDbEntity
  8
0
 62
   252
370
     0
100
AcDbLine
 10
-2.445585109955358
 20
2.976885573878286
 30
0.0
 11
-2.445585109955358
 21
2.976885573878286
 31
0.0
  0
LINE
  5
1AA
330
10F
100
AcDbEntity
  8
0
 62
   252
370
     0
100
AcDbLine
 10
0.1823978297593594
 20
4.993407807469673
 30
0.0
 11
0.1823978297593594
 21
4.993407807469673
 31
0.0
  0
LINE
  5
1AB
330
10F
100
AcDbEntity
  8
0
 62
   252
370
     0
100
AcDbLine
 10
2.768729719108785
 20
6.977970066038102
 30
0.0
 11
2.768729719108785
 21
6.977970066038102
 31
0.0
  0
LINE
  5
1AC
330
10F
100
AcDbEntity
  8
0
 62
   252
370
     0
100
AcDbLine
 10
5.426463409084423
 20
9.017320853217315
 30
0.0
 11
5.426463409084423
 21
9.017320853217315
 31
0.0
  0
LINE
  5
1AD
330
10F
100
AcDbEntity
  8
0
 62
   252
370
     0
100
AcDbLine
 10
-7.628851412693968
 20
0.6174417972871997
 30
0.0
 11
-7.628851412693968
 21
0.6174417972871997
 31
0.0
  0
LINE
  5
1AE
330
10F
100
AcDbEntity
  8
0
 62
   252
370
     0
100
AcDbLine
 10
-5.042519523344541
 20
2.602004055855629
 30
0.0
 11
-5.042519523344541
 21
2.602004055855629
 31
0.0
  0
LINE
  5
1AF
330
10F
100
AcDbEntity
  8
0
 62
   252
370
     0
100
AcDbLine
 10
-2.384785833368904
 20
4.641354843034842
 30
0.0
 11
-2.384785833368904
 21
4.641354843034842
 31
0.0
  0
LINE
  5
1B0
330
10F
100
AcDbEntity
  8
0
 62
   252
370
     0
100
AcDbLine
 10
0.2431971063458107
 20
6.65787707662623
 30
0.0
 11
0.2431971063458107
 21
6.65787707662623
 31
0.0
  0
LINE
  5
1B1
330
10F
100
AcDbEntity
  8
0
 62
   252
370
     0
100
AcDbLine
 10
2.829528995695236
 20
8.64243933519466
 30
0.0
 11
2.829528995695236
 21
8.64243933519466
 31
0.0
  0
LINE
  5
1B2
330
10F
100
AcDbEntity
  8
0
 62
   252
370
     0
100
AcDbLine
 10
5.487262685670873
 20
10.68179012237387
 30
0.0
 11
5.487262685670873
 21
10.68179012237387
 31
0.0
  0
LINE
  5
1B3
330
10F
100
AcDbEntity
  8
0
 62
   252
370
     0
100
AcDbLine
 10
-7.568052136107513
 20
2.281911066443757
 30
0.0
 11
-7.568052136107513
 21
2.281911066443757
 31
0.0
  0
LINE
  5
1B4
330
10F
100
AcDbEntity
  8
0
 62
   252
370
     0
100
AcDbLine
 10
-4.981720246758087
 20
4.266473325012186
 30
0.0
 11
-4.981720246758087
 21
4.266473325012186
 31
0.0
  0
LINE
  5
1B5
330
10F
100
AcDbEntity
  8
0
 62
   252
370
     0
100
AcDbLine
 10
-2.323986556782449
 20
6.305824112191399
 30
0.0
 11
-2.323986556782449
 21
6.305824112191399
 31
0.0
  0
LINE
  5
1B6
330
10F
100
AcDbEntity
  8
0
 62
   252
370
     0
100
AcDbLine
 10
0.3039963829322674
 20
8.322346345782787
 30
0.0
 11
0.3039963829322674
 21
8.322346345782787
 31
0.0
  0
LINE
  5
1B7
330
10F
100
AcDbEntity
  8
0
 62
   252
370
     0
100
AcDbLine
 10
2.667773337291667
 20
10.13613619642547
 30
0.0
 11
2.667773337291667
 21
10.13613619642547
 31
0.0
  0
LINE
  5
1B8
330
10F
100
AcDbEntity
  8
0
 62
   252
370
     0
100
AcDbLine
 10
5.096807937630315
 20
12.0
 30
0.0
 11
5.096807937630315
 21
12.0
 31
0.0
  0
LINE
  5
1B9
330
10F
100
AcDbEntity
  8
0
 62
   252
370
     0
100
AcDbLine
 10
-7.507252859521062
 20
3.946380335600315
 30
0.0
 11
-7.507252859521062
 21
3.946380335600315
 31
0.0
  0
LINE
  5
1BA
330
10F
100
AcDbEntity
  8
0
 62
   252
370
     0
100
AcDbLine
 10
-4.920920970171634
 20
5.930942594168744
 30
0.0
 11
-4.920920970171634
 21
5.930942594168744
 31
0.0
  0
LINE
  5
1BB
330
10F
100
AcDbEntity
  8
0
 62
   252
370
     0
100
AcDbLine
 10
-2.263187280195996
 20
7.970293381347959
 30
0.0
 11
-2.263187280195996
 21
7.970293381347959
 31
0.0
  0
LINE
  5
1BC
330
10F
100
AcDbEntity
  8
0
 62
   252
370
     0
100
AcDbLine
 10
0.3647956595187196
 20
9.986815614939347
 30
0.0
 11
0.3647956595187196
 21
9.986815614939347
 31
0.0
  0
LINE
  5
1BD
330
10F
100
AcDbEntity
  8
0
 62
   252
370
     0
100
AcDbLine
 10
1.658750800951271
 20
10.97970231619468
 30
0.0
 11
1.658750800951271
 21
10.97970231619468
 31
0.0
  0
LINE
  5
1BE
330
10F
100
AcDbEntity
  8
0
 62
   252
370
     0
100
AcDbLine
 10
2.988428630337483
 20
12.0
 30
0.0
 11
2.988428630337483
 21
12.0
 31
0.0
  0
LINE
  5
1BF
330
10F
100
AcDbEntity
  8
0
 62
   252
370
     0
100
AcDbLine
 10
-7.446453582934609
 20
5.610849604756872
 30
0.0
 11
-7.446453582934609
 21
5.610849604756872
 31
0.0
  0
LINE
  5
1C0
330
10F
100
AcDbEntity
  8
0
 62
   252
370
     0
100
AcDbLine
 10
-4.860121693585183
 20
7.595411863325301
 30
0.0
 11
-4.860121693585183
 21
7.595411863325301
 31
0.0
  0
LINE
  5
1C1
330
10F
100
AcDbEntity
  8
0
 62
   252
370
     0
100
AcDbLine
 10
-2.202388003609545
 20
9.634762650504515
 30
0.0
 11
-2.202388003609545
 21
9.634762650504515
 31
0.0
  0
LINE
  5
1C2
330
10F
100
AcDbEntity
  8
0
 62
   252
370
     0
100
AcDbLine
 10
0.4255949361051713
 20
11.6512848840959
 30
0.0
 11
0.4255949361051713
 21
11.6512848840959
 31
0.0
  0
LINE
  5
1C3
330
10F
100
AcDbEntity
  8
0
 62
   252
370
     0
100
AcDbLine
 10
0.6497282646108767
 20
11.82326843596388
 30
0.0
 11
0.6497282646108767
 21
11.82326843596388
 31
0.0
  0
LINE
  5
1C4
330
10F
100
AcDbEntity
  8
0
 62
   252
370
     0
100
AcDbLine
 10
0.8800493230446538
 20
12.0
 30
0.0
 11
0.8800493230446538
 21
12.0
 31
0.0
  0
LINE
  5
1C5
330
10F
100
AcDbEntity
  8
0
 62
   252
370
     0
100
AcDbLine
 10
-7.385654306348155
 20
7.275318873913428
 30
0.0
 11
-7.385654306348155
 21
7.275318873913428
 31
0.0
  0
LINE
  5
1C6
330
10F
100
AcDbEntity
  8
0
 62
   252
370
     0
100
AcDbLine
 10
-4.799322416998729
 20
9.259881132481858
 30
0.0
 11
-4.799322416998729
 21
9.259881132481858
 31
0.0
  0
LINE
  5
1C7
330
10F
100
AcDbEntity
  8
0
 62
   252
370
     0
100
AcDbLine
 10
-2.141588727023092
 20
11.29923191966107
 30
0.0
 11
-2.141588727023092
 21
11.29923191966107
 31
0.0
  0
LINE
  5
1C8
330
10F
100
AcDbEntity
  8
0
 62
   252
370
     0
100
AcDbLine
 10
-7.324855029761702
 20
8.939788143069986
 30
0.0
 11
-7.324855029761702
 21
8.939788143069986
 31
0.0
  0
LINE
  5
1C9
330
10F
100
AcDbEntity
  8
0
 62
   252
370
     0
100
AcDbLine
 10
-5.357932925888861
 20
10.44906055662397
 30
0.0
 11
-5.357932925888861
 21
10.44906055662397
 31
0.0
  0
LINE
  5
1CA
330
10F
100
AcDbEntity
  8
0
 62
   252
370
     0
100
AcDbLine
 10
-3.336709291541005
 20
12.0
 30
0.0
 11
-3.336709291541005
 21
12.0
 31
0.0
  0
LINE
  5
1CB
330
10F
100
AcDbEntity
  8
0
 62
   252
370
     0
100
AcDbLine
 10
-7.264055753175248
 20
10.60425741222654
 30
0.0
 11
-7.264055753175248
 21
10.60425741222654
 31
0.0
  0
LINE
  5
1CC
330
10F
100
AcDbEntity
  8
0
 62
   252
370
     0
100
AcDbLine
 10
-6.366955462229257
 20
11.29262667639318
 30
0.0
 11
-6.366955462229257
 21
11.29262667639318
 31
0.0
  0
LINE
  5
1CD
330
10F
100
AcDbEntity
  8
0
 62
   252
370
     0
100
AcDbLine
 10
-5.445088598833836
 20
12.0
 30
0.0
 11
-5.445088598833836
 21
12.0
 31
0.0
  0
LINE
  5
1CE
330
10F
100
AcDbEntity
  8
0
 62
   252
370
     0
100
AcDbLine
 10
0.0
 20
0.0
 30
0.0
 11
0.0
 21
0.0
 31
0.0
  0
LINE
  5
1CF
330
10F
100
AcDbEntity
  8
0
 62
   252
370
     0
100
AcDbLine
 10
1.893659685223978
 20
0.2493050271402986
 30
0.0
 11
1.893659685223978
 21
0.2493050271402986
 31
0.0
  0
LINE
  5
1D0
330
10F
100
AcDbEntity
  8
0
 62
   252
370
     0
100
AcDbLine
 10
5.051411568699565
 20
0.6650309493611629
 30
0.0
 11
5.051411568699565
 21
0.6650309493611629
 31
0.0
  0
LINE
  5
1D1
330
10F
100
AcDbEntity
  8
0
 62
   252
370
     0
100
AcDbLine
 10
6.303110706183999
 20
0.829820267038978
 30
0.0
 11
6.303110706183999
 21
0.829820267038978
 31
0.0
  0
LINE
  5
1D2
330
10F
100
AcDbEntity
  8
0
 62
   252
370
     0
100
AcDbLine
 10
6.939236035170959
 20
0.9135677553787152
 30
0.0
 11
6.939236035170959
 21
0.9135677553787152
 31
0.0
  0
LINE
  5
1D3
330
10F
100
AcDbEntity
  8
0
 62
   252
370
     0
100
AcDbLine
 10
7.999999999999998
 20
1.053219980699167
 30
0.0
 11
7.999999999999998
 21
1.053219980699167
 31
0.0
  0
LINE
  5
1D4
330
10F
100
AcDbEntity
  8
0
 62
   252
370
     0
100
AcDbLine
 10
-8.000000000000002
 20
0.7456697704955355
 30
0.0
 11
-8.000000000000002
 21
0.7456697704955355
 31
0.0
  0
LINE
  5
1D5
330
10F
100
AcDbEntity
  8
0
 62
   252
370
     0
100
AcDbLine
 10
-7.340014272587674
 20
0.8325585398814026
 30
0.0
 11
-7.340014272587674
 21
0.8325585398814026
 31
0.0
  0
LINE
  5
1D6
330
10F
100
AcDbEntity
  8
0
 62
   252
370
     0
100
AcDbLine
 10
-6.239462156457693
 20
0.9774489746950084
 30
0.0
 11
-6.239462156457693
 21
0.9774489746950084
 31
0.0
  0
LINE
  5
1D7
330
10F
100
AcDbEntity
  8
0
 62
   252
370
     0
100
AcDbLine
 10
-4.987763018973258
 20
1.142238292372824
 30
0.0
 11
-4.987763018973258
 21
1.142238292372824
 31
0.0
  0
LINE
  5
1D8
330
10F
100
AcDbEntity
  8
0
 62
   252
370
     0
100
AcDbLine
 10
-3.09410333374928
 20
1.391543319513122
 30
0.0
 11
-3.09410333374928
 21
1.391543319513122
 31
0.0
  0
LINE
  5
1D9
330
10F
100
AcDbEntity
  8
0
 62
   252
370
     0
100
AcDbLine
 10
0.063648549726306
 20
1.807269241733986
 30
0.0
 11
0.063648549726306
 21
1.807269241733986
 31
0.0
  0
LINE
  5
1DA
330
10F
100
AcDbEntity
  8
0
 62
   252
370
     0
100
AcDbLine
 10
1.315347687210741
 20
1.972058559411801
 30
0.0
 11
1.315347687210741
 21
1.972058559411801
 31
0.0
  0
LINE
  5
1DB
330
10F
100
AcDbEntity
  8
0
 62
   252
370
     0
100
AcDbLine
 10
3.209007372434719
 20
2.2213635865521
 30
0.0
 11
3.209007372434719
 21
2.2213635865521
 31
0.0
  0
LINE
  5
1DC
330
10F
100
AcDbEntity
  8
0
 62
   252
370
     0
100
AcDbLine
 10
6.366759255910306
 20
2.637089508772964
 30
0.0
 11
6.366759255910306
 21
2.637089508772964
 31
0.0
  0
LINE
  5
1DD
330
10F
100
AcDbEntity
  8
0
 62
   252
370
     0
100
AcDbLine
 10
7.618458393394741
 20
2.801878826450779
 30
0.0
 11
7.618458393394741
 21
2.801878826450779
 31
0.0
  0
LINE
  5
1DE
330
10F
100
AcDbEntity
  8
0
 62
   252
370
     0
100
AcDbLine
 10
7.761489692436163
 20
2.820709254202752
 30
0.0
 11
7.761489692436163
 21
2.820709254202752
 31
0.0
  0
LINE
  5
1DF
330
10F
100
AcDbEntity
  8
0
 62
   252
370
     0
100
AcDbLine
 10
7.999999999999998
 20
2.852109731893869
 30
0.0
 11
7.999999999999998
 21
2.852109731893869
 31
0.0
  0
LINE
  5
1E0
330
10F
100
AcDbEntity
  8
0
 62
   252
370
     0
100
AcDbLine
 10
-8.000000000000002
 20
2.544559521690238
 30
0.0
 11
-8.000000000000002
 21
2.544559521690238
 31
0.0
  0
LINE
  5
1E1
330
10F
100
AcDbEntity
  8
0
 62
   252
370
     0
100
AcDbLine
 10
-6.846920242642135
 20
2.696365351663869
 30
0.0
 11
-6.846920242642135
 21
2.696365351663869
 31
0.0
  0
LINE
  5
1E2
330
10F
100
AcDbEntity
  8
0
 62
   252
370
     0
100
AcDbLine
 10
-4.924114469246948
 20
2.94950753410681
 30
0.0
 11
-4.924114469246948
 21
2.94950753410681
 31
0.0
  0
LINE
  5
1E3
330
10F
100
AcDbEntity
  8
0
 62
   252
370
     0
100
AcDbLine
 10
-3.672415331762513
 20
3.114296851784625
 30
0.0
 11
-3.672415331762513
 21
3.114296851784625
 31
0.0
  0
LINE
  5
1E4
330
10F
100
AcDbEntity
  8
0
 62
   252
370
     0
100
AcDbLine
 10
-1.778755646538534
 20
3.363601878924924
 30
0.0
 11
-1.778755646538534
 21
3.363601878924924
 31
0.0
  0
LINE
  5
1E5
330
10F
100
AcDbEntity
  8
0
 62
   252
370
     0
100
AcDbLine
 10
1.378996236937052
 20
3.779327801145789
 30
0.0
 11
1.378996236937052
 21
3.779327801145789
 31
0.0
  0
LINE
  5
1E6
330
10F
100
AcDbEntity
  8
0
 62
   252
370
     0
100
AcDbLine
 10
2.630695374421489
 20
3.944117118823604
 30
0.0
 11
2.630695374421489
 21
3.944117118823604
 31
0.0
  0
LINE
  5
1E7
330
10F
100
AcDbEntity
  8
0
 62
   252
370
     0
100
AcDbLine
 10
4.524355059645467
 20
4.193422145963902
 30
0.0
 11
4.524355059645467
 21
4.193422145963902
 31
0.0
  0
LINE
  5
1E8
330
10F
100
AcDbEntity
  8
0
 62
   252
370
     0
100
AcDbLine
 10
7.682106943121052
 20
4.609148068184767
 30
0.0
 11
7.682106943121052
 21
4.609148068184767
 31
0.0
  0
LINE
  5
1E9
330
10F
100
AcDbEntity
  8
0
 62
   252
370
     0
100
AcDbLine
 10
-8.000000000000002
 20
4.343449272884941
 30
0.0
 11
-8.000000000000002
 21
4.343449272884941
 31
0.0
  0
LINE
  5
1EA
330
10F
100
AcDbEntity
  8
0
 62
   252
370
     0
100
AcDbLine
 10
-6.353826212696597
 20
4.560172163446337
 30
0.0
 11
-6.353826212696597
 21
4.560172163446337
 31
0.0
  0
LINE
  5
1EB
330
10F
100
AcDbEntity
  8
0
 62
   252
370
     0
100
AcDbLine
 10
-3.608766782036207
 20
4.921566093518612
 30
0.0
 11
-3.608766782036207
 21
4.921566093518612
 31
0.0
  0
LINE
  5
1EC
330
10F
100
AcDbEntity
  8
0
 62
   252
370
     0
100
AcDbLine
 10
-2.35706764455177
 20
5.086355411196427
 30
0.0
 11
-2.35706764455177
 21
5.086355411196427
 31
0.0
  0
LINE
  5
1ED
330
10F
100
AcDbEntity
  8
0
 62
   252
370
     0
100
AcDbLine
 10
-0.4634079593277927
 20
5.335660438336726
 30
0.0
 11
-0.4634079593277927
 21
5.335660438336726
 31
0.0
  0
LINE
  5
1EE
330
10F
100
AcDbEntity
  8
0
 62
   252
370
     0
100
AcDbLine
 10
2.694343924147793
 20
5.751386360557589
 30
0.0
 11
2.694343924147793
 21
5.751386360557589
 31
0.0
  0
LINE
  5
1EF
330
10F
100
AcDbEntity
  8
0
 62
   252
370
     0
100
AcDbLine
 10
3.946043061632228
 20
5.916175678235405
 30
0.0
 11
3.946043061632228
 21
5.916175678235405
 31
0.0
  0
LINE
  5
1F0
330
10F
100
AcDbEntity
  8
0
 62
   252
370
     0
100
AcDbLine
 10
5.465779617526721
 20
6.116252791493781
 30
0.0
 11
5.465779617526721
 21
6.116252791493781
 31
0.0
  0
LINE
  5
1F1
330
10F
100
AcDbEntity
  8
0
 62
   252
370
     0
100
AcDbLine
 10
7.999999999999998
 20
6.449889234283273
 30
0.0
 11
7.999999999999998
 21
6.449889234283273
 31
0.0
  0
LINE
  5
1F2
330
10F
100
AcDbEntity
  8
0
 62
   252
370
     0
100
AcDbLine
 10
-7.344830663525027
 20
6.22859370356925
 30
0.0
 11
-7.344830663525027
 21
6.22859370356925
 31
0.0
  0
LINE
  5
1F3
330
10F
100
AcDbEntity
  8
0
 62
   252
370
     0
100
AcDbLine
 10
-5.451170978301049
 20
6.477898730709549
 30
0.0
 11
-5.451170978301049
 21
6.477898730709549
 31
0.0
  0
LINE
  5
1F4
330
10F
100
AcDbEntity
  8
0
 62
   252
370
     0
100
AcDbLine
 10
-2.293419094825463
 20
6.893624652930413
 30
0.0
 11
-2.293419094825463
 21
6.893624652930413
 31
0.0
  0
LINE
  5
1F5
330
10F
100
AcDbEntity
  8
0
 62
   252
370
     0
100
AcDbLine
 10
-1.041719957341027
 20
7.058413970608228
 30
0.0
 11
-1.041719957341027
 21
7.058413970608228
 31
0.0
  0
LINE
  5
1F6
330
10F
100
AcDbEntity
  8
0
 62
   252
370
     0
100
AcDbLine
 10
0.8519397278829508
 20
7.307718997748527
 30
0.0
 11
0.8519397278829508
 21
7.307718997748527
 31
0.0
  0
LINE
  5
1F7
330
10F
100
AcDbEntity
  8
0
 62
   252
370
     0
100
AcDbLine
 10
4.009691611358537
 20
7.72344491996939
 30
0.0
 11
4.009691611358537
 21
7.72344491996939
 31
0.0
  0
LINE
  5
1F8
330
10F
100
AcDbEntity
  8
0
 62
   252
370
     0
100
AcDbLine
 10
5.261390748842973
 20
7.888234237647207
 30
0.0
 11
5.261390748842973
 21
7.888234237647207
 31
0.0
  0
LINE
  5
1F9
330
10F
100
AcDbEntity
  8
0
 62
   252
370
     0
100
AcDbLine
 10
6.288033274791927
 20
8.02339429031782
 30
0.0
 11
6.288033274791927
 21
8.02339429031782
 31
0.0
  0
LINE
  5
1FA
330
10F
100
AcDbEntity
  8
0
 62
   252
370
     0
100
AcDbLine
 10
7.999999999999999
 20
8.248778985477976
 30
0.0
 11
7.999999999999999
 21
8.248778985477976
 31
0.0
  0
LINE
  5
1FB
330
10F
100
AcDbEntity
  8
0
 62
   252
370
     0
100
AcDbLine
 10
-8.0
 20
7.941228775274345
 30
0.0
 11
-8.0
 21
7.941228775274345
 31
0.0
  0
LINE
  5
1FC
330
10F
100
AcDbEntity
  8
0
 62
   252
370
     0
100
AcDbLine
 10
-7.730531469549667
 20
7.976704980329337
 30
0.0
 11
-7.730531469549667
 21
7.976704980329337
 31
0.0
  0
LINE
  5
1FD
330
10F
100
AcDbEntity
  8
0
 62
   252
370
     0
100
AcDbLine
 10
-7.281182113798717
 20
8.035862945303236
 30
0.0
 11
-7.281182113798717
 21
8.035862945303236
 31
0.0
  0
LINE
  5
1FE
330
10F
100
AcDbEntity
  8
0
 62
   252
370
     0
100
AcDbLine
 10
-6.029482976314281
 20
8.200652262981052
 30
0.0
 11
-6.029482976314281
 21
8.200652262981052
 31
0.0
  0
LINE
  5
1FF
330
10F
100
AcDbEntity
  8
0
 62
   252
370
     0
100
AcDbLine
 10
-4.135823291090303
 20
8.44995729012135
 30
0.0
 11
-4.135823291090303
 21
8.44995729012135
 31
0.0
  0
LINE
  5
200
330
10F
100
AcDbEntity
  8
0
 62
   252
370
     0
100
AcDbLine
 10
-0.978071407614717
 20
8.865683212342216
 30
0.0
 11
-0.978071407614717
 21
8.865683212342216
 31
0.0
  0
LINE
  5
201
330
10F
100
AcDbEntity
  8
0
 62
   252
370
     0
100
AcDbLine
 10
0.2736277298697196
 20
9.03047253002003
 30
0.0
 11
0.2736277298697196
 21
9.03047253002003
 31
0.0
  0
LINE
  5
202
330
10F
100
AcDbEntity
  8
0
 62
   252
370
     0
100
AcDbLine
 10
2.167287415093697
 20
9.279777557160328
 30
0.0
 11
2.167287415093697
 21
9.279777557160328
 31
0.0
  0
LINE
  5
203
330
10F
100
AcDbEntity
  8
0
 62
   252
370
     0
100
AcDbLine
 10
5.325039298569283
 20
9.695503479381191
 30
0.0
 11
5.325039298569283
 21
9.695503479381191
 31
0.0
  0
LINE
  5
204
330
10F
100
AcDbEntity
  8
0
 62
   252
370
     0
100
AcDbLine
 10
6.576738436053718
 20
9.860292797059007
 30
0.0
 11
6.576738436053718
 21
9.860292797059007
 31
0.0
  0
LINE
  5
205
330
10F
100
AcDbEntity
  8
0
 62
   252
370
     0
100
AcDbLine
 10
7.110286932057133
 20
9.930535789141855
 30
0.0
 11
7.110286932057133
 21
9.930535789141855
 31
0.0
  0
LINE
  5
206
330
10F
100
AcDbEntity
  8
0
 62
   252
370
     0
100
AcDbLine
 10
8.0
 20
10.04766873667268
 30
0.0
 11
8.0
 21
10.04766873667268
 31
0.0
  0
LINE
  5
207
330
10F
100
AcDbEntity
  8
0
 62
   252
370
     0
100
AcDbLine
 10
-8.0
 20
9.740118526469049
 30
0.0
 11
-8.0
 21
9.740118526469049
 31
0.0
  0
LINE
  5
208
330
10F
100
AcDbEntity
  8
0
 62
   252
370
     0
100
AcDbLine
 10
-7.237437439604129
 20
9.840511792111805
 30
0.0
 11
-7.237437439604129
 21
9.840511792111805
 31
0.0
  0
LINE
  5
209
330
10F
100
AcDbEntity
  8
0
 62
   252
370
     0
100
AcDbLine
 10
-5.965834426587977
 20
10.00792150471504
 30
0.0
 11
-5.965834426587977
 21
10.00792150471504
 31
0.0
  0
LINE
  5
20A
330
10F
100
AcDbEntity
  8
0
 62
   252
370
     0
100
AcDbLine
 10
-4.71413528910354
 20
10.17271082239285
 30
0.0
 11
-4.71413528910354
 21
10.17271082239285
 31
0.0
  0
LINE
  5
20B
330
10F
100
AcDbEntity
  8
0
 62
   252
370
     0
100
AcDbLine
 10
-2.820475603879562
 20
10.42201584953315
 30
0.0
 11
-2.820475603879562
 21
10.42201584953315
 31
0.0
  0
LINE
  5
20C
330
10F
100
AcDbEntity
  8
0
 62
   252
370
     0
100
AcDbLine
 10
0.3372762795960256
 20
10.83774177175401
 30
0.0
 11
0.3372762795960256
 21
10.83774177175401
 31
0.0
  0
LINE
  5
20D
330
10F
100
AcDbEntity
  8
0
 62
   252
370
     0
100
AcDbLine
 10
1.58897541708046
 20
11.00253108943183
 30
0.0
 11
1.58897541708046
 21
11.00253108943183
 31
0.0
  0
LINE
  5
20E
330
10F
100
AcDbEntity
  8
0
 62
   252
370
     0
100
AcDbLine
 10
3.482635102304439
 20
11.25183611657213
 30
0.0
 11
3.482635102304439
 21
11.25183611657213
 31
0.0
  0
LINE
  5
20F
330
10F
100
AcDbEntity
  8
0
 62
   252
370
     0
100
AcDbLine
 10
6.640386985780026
 20
11.66756203879299
 30
0.0
 11
6.640386985780026
 21
11.66756203879299
 31
0.0
  0
LINE
  5
210
330
10F
100
AcDbEntity
  8
0
 62
   252
370
     0
100
AcDbLine
 10
7.892086123264463
 20
11.83235135647081
 30
0.0
 11
7.892086123264463
 21
11.83235135647081
 31
0.0
  0
LINE
  5
211
330
10F
100
AcDbEntity
  8
0
 62
   252
370
     0
100
AcDbLine
 10
7.932540589322338
 20
11.83767728796589
 30
0.0
 11
7.932540589322338
 21
11.83767728796589
 31
0.0
  0
LINE
  5
212
330
10F
100
AcDbEntity
  8
0
 62
   252
370
     0
100
AcDbLine
 10
8.0
 20
11.84655848786738
 30
0.0
 11
8.0
 21
11.84655848786738
 31
0.0
  0
LINE
  5
213
330
10F
100
AcDbEntity
  8
0
 62
   252
370
     0
100
AcDbLine
 10
-8.0
 20
11.53900827766375
 30
0.0
 11
-8.0
 21
11.53900827766375
 31
0.0
  0
LINE
  5
214
330
10F
100
AcDbEntity
  8
0
 62
   252
370
     0
100
AcDbLine
 10
-6.74434340965859
 20
11.70431860389427
 30
0.0
 11
-6.74434340965859
 21
11.70431860389427
 31
0.0
  0
LINE
  5
215
330
10F
100
AcDbEntity
  8
0
 62
   252
370
     0
100
AcDbLine
 10
-4.650486739377234
 20
11.97998006412684
 30
0.0
 11
-4.650486739377234
 21
11.97998006412684
 31
0.0
  0
LINE
  5
216
330
10F
100
AcDbEntity
  8
0
 62
   252
370
     0
100
AcDbLine
 10
-7.362569018599543
 20
0.8048651550633451
 30
0.0
 11
-7.362569018599543
 21
0.8048651550633451
 31
0.0
  0
LINE
  5
217
330
10F
100
AcDbEntity
  8
0
 62
   252
370
     0
100
AcDbLine
 10
-7.055922119223969
 20
0.6095095349023394
 30
0.0
 11
-7.055922119223969
 21
0.6095095349023394
 31
0.0
  0
LINE
  5
218
330
10F
100
AcDbEntity
  8
0
 62
   252
370
     0
100
AcDbLine
 10
-6.09918379317218
 20
0.0000000000000013
 30
0.0
 11
-6.09918379317218
 21
0.0000000000000013
 31
0.0
  0
LINE
  5
219
330
10F
100
AcDbEntity
  8
0
 62
   252
370
     0
100
AcDbLine
 10
-8.000000000000002
 20
2.798591111145253
 30
0.0
 11
-8.000000000000002
 21
2.798591111145253
 31
0.0
  0
LINE
  5
21A
330
10F
100
AcDbEntity
  8
0
 62
   252
370
     0
100
AcDbLine
 10
-7.089642452032145
 20
2.218629390633301
 30
0.0
 11
-7.089642452032145
 21
2.218629390633301
 31
0.0
  0
LINE
  5
21B
330
10F
100
AcDbEntity
  8
0
 62
   252
370
     0
100
AcDbLine
 10
-4.249326902372432
 20
0.4091488226360078
 30
0.0
 11
-4.249326902372432
 21
0.4091488226360078
 31
0.0
  0
LINE
  5
21C
330
10F
100
AcDbEntity
  8
0
 62
   252
370
     0
100
AcDbLine
 10
-8.000000000000002
 20
4.386228745659595
 30
0.0
 11
-8.000000000000002
 21
4.386228745659595
 31
0.0
  0
LINE
  5
21D
330
10F
100
AcDbEntity
  8
0
 62
   252
370
     0
100
AcDbLine
 10
-7.388240468951866
 20
3.996494941663289
 30
0.0
 11
-7.388240468951866
 21
3.996494941663289
 31
0.0
  0
LINE
  5
21E
330
10F
100
AcDbEntity
  8
0
 62
   252
370
     0
100
AcDbLine
 10
-5.479550732081682
 20
2.780525473194814
 30
0.0
 11
-5.479550732081682
 21
2.780525473194814
 31
0.0
  0
LINE
  5
21F
330
10F
100
AcDbEntity
  8
0
 62
   252
370
     0
100
AcDbLine
 10
-2.34522382970925
 20
2.371376650558807
 30
0.0
 11
-2.34522382970925
 21
2.371376650558807
 31
0.0
  0
LINE
  5
220
330
10F
100
AcDbEntity
  8
0
 62
   252
370
     0
100
AcDbLine
 10
-1.441749138860867
 20
1.795799793627058
 30
0.0
 11
-1.441749138860867
 21
1.795799793627058
 31
0.0
  0
LINE
  5
221
330
10F
100
AcDbEntity
  8
0
 62
   252
370
     0
100
AcDbLine
 10
1.37709189658609
 20
-0.0000000000000004
 30
0.0
 11
1.37709189658609
 21
-0.0000000000000004
 31
0.0
  0
LINE
  5
222
330
10F
100
AcDbEntity
  8
0
 62
   252
370
     0
100
AcDbLine
 10
-8.000000000000002
 20
5.973866380173936
 30
0.0
 11
-8.000000000000002
 21
5.973866380173936
 31
0.0
  0
LINE
  5
223
330
10F
100
AcDbEntity
  8
0
 62
   252
370
     0
100
AcDbLine
 10
-7.686838485871587
 20
5.774360492693277
 30
0.0
 11
-7.686838485871587
 21
5.774360492693277
 31
0.0
  0
LINE
  5
224
330
10F
100
AcDbEntity
  8
0
 62
   252
370
     0
100
AcDbLine
 10
-6.709774561790932
 20
5.151902123753621
 30
0.0
 11
-6.709774561790932
 21
5.151902123753621
 31
0.0
  0
LINE
  5
225
330
10F
100
AcDbEntity
  8
0
 62
   252
370
     0
100
AcDbLine
 10
-3.575447659418503
 20
4.742753301117616
 30
0.0
 11
-3.575447659418503
 21
4.742753301117616
 31
0.0
  0
LINE
  5
226
330
10F
100
AcDbEntity
  8
0
 62
   252
370
     0
100
AcDbLine
 10
-2.521208352152395
 20
4.071128790684085
 30
0.0
 11
-2.521208352152395
 21
4.071128790684085
 31
0.0
  0
LINE
  5
227
330
10F
100
AcDbEntity
  8
0
 62
   252
370
     0
100
AcDbLine
 10
0.7680182865178597
 20
1.975660318131471
 30
0.0
 11
0.7680182865178597
 21
1.975660318131471
 31
0.0
  0
LINE
  5
228
330
10F
100
AcDbEntity
  8
0
 62
   252
370
     0
100
AcDbLine
 10
-8.0
 20
7.561504014688277
 30
0.0
 11
-8.0
 21
7.561504014688277
 31
0.0
  0
LINE
  5
229
330
10F
100
AcDbEntity
  8
0
 62
   252
370
     0
100
AcDbLine
 10
-7.985436502791307
 20
7.552226043723266
 30
0.0
 11
-7.985436502791307
 21
7.552226043723266
 31
0.0
  0
LINE
  5
22A
330
10F
100
AcDbEntity
  8
0
 62
   252
370
     0
100
AcDbLine
 10
-7.939998391500187
 20
7.523278774312431
 30
0.0
 11
-7.939998391500187
 21
7.523278774312431
 31
0.0
  0
LINE
  5
22B
330
10F
100
AcDbEntity
  8
0
 62
   252
370
     0
100
AcDbLine
 10
3.902345188890293
 20
1.566511495495461
 30
0.0
 11
3.902345188890293
 21
1.566511495495461
 31
0.0
  0
LINE
  5
22C
330
10F
100
AcDbEntity
  8
0
 62
   252
370
     0
100
AcDbLine
 10
4.499172980363102
 20
1.186290258724718
 30
0.0
 11
4.499172980363102
 21
1.186290258724718
 31
0.0
  0
LINE
  5
22D
330
10F
100
AcDbEntity
  8
0
 62
   252
370
     0
100
AcDbLine
 10
6.361275689758269
 20
-0.0000000000000013
 30
0.0
 11
6.361275689758269
 21
-0.0000000000000013
 31
0.0
  0
LINE
  5
22E
330
10F
100
AcDbEntity
  8
0
 62
   252
370
     0
100
AcDbLine
 10
-4.80567148912775
 20
7.11412995167642
 30
0.0
 11
-4.80567148912775
 21
7.11412995167642
 31
0.0
  0
LINE
  5
22F
330
10F
100
AcDbEntity
  8
0
 62
   252
370
     0
100
AcDbLine
 10
-3.751432181861643
 20
6.44250544124289
 30
0.0
 11
-3.751432181861643
 21
6.44250544124289
 31
0.0
  0
LINE
  5
230
330
10F
100
AcDbEntity
  8
0
 62
   252
370
     0
100
AcDbLine
 10
-0.4622055431913887
 20
4.347036968690275
 30
0.0
 11
-0.4622055431913887
 21
4.347036968690275
 31
0.0
  0
LINE
  5
231
330
10F
100
AcDbEntity
  8
0
 62
   252
370
     0
100
AcDbLine
 10
2.672121359181042
 20
3.937888146054269
 30
0.0
 11
2.672121359181042
 21
3.937888146054269
 31
0.0
  0
LINE
  5
232
330
10F
100
AcDbEntity
  8
0
 62
   252
370
     0
100
AcDbLine
 10
3.726360666447149
 20
3.266263635620739
 30
0.0
 11
3.726360666447149
 21
3.266263635620739
 31
0.0
  0
LINE
  5
233
330
10F
100
AcDbEntity
  8
0
 62
   252
370
     0
100
AcDbLine
 10
7.015587305117402
 20
1.170795163068124
 30
0.0
 11
7.015587305117402
 21
1.170795163068124
 31
0.0
  0
LINE
  5
234
330
10F
100
AcDbEntity
  8
0
 62
   252
370
     0
100
AcDbLine
 10
-6.035895318837001
 20
9.48550660223523
 30
0.0
 11
-6.035895318837001
 21
9.48550660223523
 31
0.0
  0
LINE
  5
235
330
10F
100
AcDbEntity
  8
0
 62
   252
370
     0
100
AcDbLine
 10
-4.981656011570895
 20
8.8138820918017
 30
0.0
 11
-4.981656011570895
 21
8.8138820918017
 31
0.0
  0
LINE
  5
236
330
10F
100
AcDbEntity
  8
0
 62
   252
370
     0
100
AcDbLine
 10
-1.69242937290064
 20
6.718413619249084
 30
0.0
 11
-1.69242937290064
 21
6.718413619249084
 31
0.0
  0
LINE
  5
237
330
10F
100
AcDbEntity
  8
0
 62
   252
370
     0
100
AcDbLine
 10
1.441897529471791
 20
6.309264796613077
 30
0.0
 11
1.441897529471791
 21
6.309264796613077
 31
0.0
  0
LINE
  5
238
330
10F
100
AcDbEntity
  8
0
 62
   252
370
     0
100
AcDbLine
 10
2.496136836737898
 20
5.637640286179547
 30
0.0
 11
2.496136836737898
 21
5.637640286179547
 31
0.0
  0
LINE
  5
239
330
10F
100
AcDbEntity
  8
0
 62
   252
370
     0
100
AcDbLine
 10
5.785363475408152
 20
3.542171813626933
 30
0.0
 11
5.785363475408152
 21
3.542171813626933
 31
0.0
  0
LINE
  5
23A
330
10F
100
AcDbEntity
  8
0
 62
   252
370
     0
100
AcDbLine
 10
-7.266119148546249
 20
11.85688325279403
 30
0.0
 11
-7.266119148546249
 21
11.85688325279403
 31
0.0
  0
LINE
  5
23B
330
10F
100
AcDbEntity
  8
0
 62
   252
370
     0
100
AcDbLine
 10
-6.211879841280142
 20
11.1852587423605
 30
0.0
 11
-6.211879841280142
 21
11.1852587423605
 31
0.0
  0
LINE
  5
23C
330
10F
100
AcDbEntity
  8
0
 62
   252
370
     0
100
AcDbLine
 10
-2.92265320260989
 20
9.089790269807892
 30
0.0
 11
-2.92265320260989
 21
9.089790269807892
 31
0.0
  0
LINE
  5
23D
330
10F
100
AcDbEntity
  8
0
 62
   252
370
     0
100
AcDbLine
 10
0.2116736997625397
 20
8.680641447171885
 30
0.0
 11
0.2116736997625397
 21
8.680641447171885
 31
0.0
  0
LINE
  5
23E
330
10F
100
AcDbEntity
  8
0
 62
   252
370
     0
100
AcDbLine
 10
1.265913007028647
 20
8.009016936738355
 30
0.0
 11
1.265913007028647
 21
8.009016936738355
 31
0.0
  0
LINE
  5
23F
330
10F
100
AcDbEntity
  8
0
 62
   252
370
     0
100
AcDbLine
 10
4.555139645698901
 20
5.91354846418574
 30
0.0
 11
4.555139645698901
 21
5.91354846418574
 31
0.0
  0
LINE
  5
240
330
10F
100
AcDbEntity
  8
0
 62
   252
370
     0
100
AcDbLine
 10
-4.998675545893336
 20
12.0
 30
0.0
 11
-4.998675545893336
 21
12.0
 31
0.0
  0
LINE
  5
241
330
10F
100
AcDbEntity
  8
0
 62
   252
370
     0
100
AcDbLine
 10
-4.793384644540376
 20
11.86921527193367
 30
0.0
 11
-4.793384644540376
 21
11.86921527193367
 31
0.0
  0
LINE
  5
242
330
10F
100
AcDbEntity
  8
0
 62
   252
370
     0
100
AcDbLine
 10
-4.152877032319142
 20
11.4611669203667
 30
0.0
 11
-4.152877032319142
 21
11.4611669203667
 31
0.0
  0
LINE
  5
243
330
10F
100
AcDbEntity
  8
0
 62
   252
370
     0
100
AcDbLine
 10
7.689466548071335
 20
5.504399641549732
 30
0.0
 11
7.689466548071335
 21
5.504399641549732
 31
0.0
  0
LINE
  5
244
330
10F
100
AcDbEntity
  8
0
 62
   252
370
     0
100
AcDbLine
 10
7.764838745141399
 20
5.456382256304672
 30
0.0
 11
7.764838745141399
 21
5.456382256304672
 31
0.0
  0
LINE
  5
245
330
10F
100
AcDbEntity
  8
0
 62
   252
370
     0
100
AcDbLine
 10
7.999999999999999
 20
5.306568014340086
 30
0.0
 11
7.999999999999999
 21
5.306568014340086
 31
0.0
  0
LINE
  5
246
330
10F
100
AcDbEntity
  8
0
 62
   252
370
     0
100
AcDbLine
 10
-1.018550129946707
 20
11.05201809773069
 30
0.0
 11
-1.018550129946707
 21
11.05201809773069
 31
0.0
  0
LINE
  5
247
330
10F
100
AcDbEntity
  8
0
 62
   252
370
     0
100
AcDbLine
 10
0.0356891773193995
 20
10.38039358729716
 30
0.0
 11
0.0356891773193995
 21
10.38039358729716
 31
0.0
  0
LINE
  5
248
330
10F
100
AcDbEntity
  8
0
 62
   252
370
     0
100
AcDbLine
 10
3.324915815989653
 20
8.284925114744546
 30
0.0
 11
3.324915815989653
 21
8.284925114744546
 31
0.0
  0
LINE
  5
249
330
10F
100
AcDbEntity
  8
0
 62
   252
370
     0
100
AcDbLine
 10
6.459242718362083
 20
7.875776292108538
 30
0.0
 11
6.459242718362083
 21
7.875776292108538
 31
0.0
  0
LINE
  5
24A
330
10F
100
AcDbEntity
  8
0
 62
   252
370
     0
100
AcDbLine
 10
6.833212932351868
 20
7.637530990347832
 30
0.0
 11
6.833212932351868
 21
7.637530990347832
 31
0.0
  0
LINE
  5
24B
330
10F
100
AcDbEntity
  8
0
 62
   252
370
     0
100
AcDbLine
 10
7.999999999999999
 20
6.894205648854427
 30
0.0
 11
7.999999999999999
 21
6.894205648854427
 31
0.0
  0
LINE
  5
24C
330
10F
100
AcDbEntity
  8
0
 62
   252
370
     0
100
AcDbLine
 10
-0.0144917527211552
 20
12.0
 30
0.0
 11
-0.0144917527211552
 21
12.0
 31
0.0
  0
LINE
  5
24D
330
10F
100
AcDbEntity
  8
0
 62
   252
370
     0
100
AcDbLine
 10
0.497446048007378
 20
11.67385965177266
 30
0.0
 11
0.497446048007378
 21
11.67385965177266
 31
0.0
  0
LINE
  5
24E
330
10F
100
AcDbEntity
  8
0
 62
   252
370
     0
100
AcDbLine
 10
2.094691986280402
 20
10.65630176530335
 30
0.0
 11
2.094691986280402
 21
10.65630176530335
 31
0.0
  0
LINE
  5
24F
330
10F
100
AcDbEntity
  8
0
 62
   252
370
     0
100
AcDbLine
 10
5.229018888652833
 20
10.24715294266735
 30
0.0
 11
5.229018888652833
 21
10.24715294266735
 31
0.0
  0
LINE
  5
250
330
10F
100
AcDbEntity
  8
0
 62
   252
370
     0
100
AcDbLine
 10
5.90158711956234
 20
9.818679724390993
 30
0.0
 11
5.90158711956234
 21
9.818679724390993
 31
0.0
  0
LINE
  5
251
330
10F
100
AcDbEntity
  8
0
 62
   252
370
     0
100
AcDbLine
 10
7.999999999999999
 20
8.481843283368768
 30
0.0
 11
7.999999999999999
 21
8.481843283368768
 31
0.0
  0
LINE
  5
252
330
10F
100
AcDbEntity
  8
0
 62
   252
370
     0
100
AcDbLine
 10
4.969692040451029
 20
12.0
 30
0.0
 11
4.969692040451029
 21
12.0
 31
0.0
  0
LINE
  5
253
330
10F
100
AcDbEntity
  8
0
 62
   252
370
     0
100
AcDbLine
 10
5.705203681118255
 20
11.53142740725318
 30
0.0
 11
5.705203681118255
 21
11.53142740725318
 31
0.0
  0
LINE
  5
254
330
10F
100
AcDbEntity
  8
0
 62
   252
370
     0
100
AcDbLine
 10
8.0
 20
10.06948091788311
 30
0.0
 11
8.0
 21
10.06948091788311
 31
0.0
  0
LINE
  5
255
330
10F
100
AcDbEntity
  8
0
 62
   252
370
     0
100
AcDbLine
 10
-7.676598331946006
 20
2.381948268151389
 30
0.0
 11
-7.676598331946006
 21
2.381948268151389
 31
0.0
  0
LINE
  5
256
330
10F
100
AcDbEntity
  8
0
 62
   252
370
     0
100
AcDbLine
 10
-6.674441596363832
 20
1.463640810085907
 30
0.0
 11
-6.674441596363832
 21
1.463640810085907
 31
0.0
  0
LINE
  5
257
330
10F
100
AcDbEntity
  8
0
 62
   252
370
     0
100
AcDbLine
 10
-5.077157937805167
 20
0.0000000000000013
 30
0.0
 11
-5.077157937805167
 21
0.0000000000000013
 31
0.0
  0
LINE
  5
258
330
10F
100
AcDbEntity
  8
0
 62
   252
370
     0
100
AcDbLine
 10
-7.432118187431878
 20
5.33040673808756
 30
0.0
 11
-7.432118187431878
 21
5.33040673808756
 31
0.0
  0
LINE
  5
259
330
10F
100
AcDbEntity
  8
0
 62
   252
370
     0
100
AcDbLine
 10
-6.234042515115426
 20
4.232572650712112
 30
0.0
 11
-6.234042515115426
 21
4.232572650712112
 31
0.0
  0
LINE
  5
25A
330
10F
100
AcDbEntity
  8
0
 62
   252
370
     0
100
AcDbLine
 10
-4.324494212777205
 20
2.482794012987552
 30
0.0
 11
-4.324494212777205
 21
2.482794012987552
 31
0.0
  0
LINE
  5
25B
330
10F
100
AcDbEntity
  8
0
 62
   252
370
     0
100
AcDbLine
 10
-1.370519855485873
 20
2.948458469936172
 30
0.0
 11
-1.370519855485873
 21
2.948458469936172
 31
0.0
  0
LINE
  5
25C
330
10F
100
AcDbEntity
  8
0
 62
   252
370
     0
100
AcDbLine
 10
-0.1724441831694212
 20
1.850624382560724
 30
0.0
 11
-0.1724441831694212
 21
1.850624382560724
 31
0.0
  0
LINE
  5
25D
330
10F
100
AcDbEntity
  8
0
 62
   252
370
     0
100
AcDbLine
 10
1.7371041191688
 20
0.1008457448361635
 30
0.0
 11
1.7371041191688
 21
0.1008457448361635
 31
0.0
  0
LINE
  5
25E
330
10F
100
AcDbEntity
  8
0
 62
   252
370
     0
100
AcDbLine
 10
-7.187638042917751
 20
8.278865208023731
 30
0.0
 11
-7.187638042917751
 21
8.278865208023731
 31
0.0
  0
LINE
  5
25F
330
10F
100
AcDbEntity
  8
0
 62
   252
370
     0
100
AcDbLine
 10
-5.989562370601299
 20
7.181031120648283
 30
0.0
 11
-5.989562370601299
 21
7.181031120648283
 31
0.0
  0
LINE
  5
260
330
10F
100
AcDbEntity
  8
0
 62
   252
370
     0
100
AcDbLine
 10
-4.080014068263078
 20
5.431252482923724
 30
0.0
 11
-4.080014068263078
 21
5.431252482923724
 31
0.0
  0
LINE
  5
261
330
10F
100
AcDbEntity
  8
0
 62
   252
370
     0
100
AcDbLine
 10
4.691078476460134
 20
0.5665102017847826
 30
0.0
 11
4.691078476460134
 21
0.5665102017847826
 31
0.0
  0
LINE
  5
262
330
10F
100
AcDbEntity
  8
0
 62
   252
370
     0
100
AcDbLine
 10
4.929426228208433
 20
0.3481047266008505
 30
0.0
 11
4.929426228208433
 21
0.3481047266008505
 31
0.0
  0
LINE
  5
263
330
10F
100
AcDbEntity
  8
0
 62
   252
370
     0
100
AcDbLine
 10
5.309315875610337
 20
-0.0000000000000012
 30
0.0
 11
5.309315875610337
 21
-0.0000000000000012
 31
0.0
  0
LINE
  5
264
330
10F
100
AcDbEntity
  8
0
 62
   252
370
     0
100
AcDbLine
 10
-1.126039710971743
 20
5.896916939872342
 30
0.0
 11
-1.126039710971743
 21
5.896916939872342
 31
0.0
  0
LINE
  5
265
330
10F
100
AcDbEntity
  8
0
 62
   252
370
     0
100
AcDbLine
 10
0.0720359613447086
 20
4.799082852496894
 30
0.0
 11
0.0720359613447086
 21
4.799082852496894
 31
0.0
  0
LINE
  5
266
330
10F
100
AcDbEntity
  8
0
 62
   252
370
     0
100
AcDbLine
 10
1.981584263682929
 20
3.049304214772334
 30
0.0
 11
1.981584263682929
 21
3.049304214772334
 31
0.0
  0
LINE
  5
267
330
10F
100
AcDbEntity
  8
0
 62
   252
370
     0
100
AcDbLine
 10
-6.94315789840362
 20
11.2273236779599
 30
0.0
 11
-6.94315789840362
 21
11.2273236779599
 31
0.0
  0
LINE
  5
268
330
10F
100
AcDbEntity
  8
0
 62
   252
370
     0
100
AcDbLine
 10
-5.745082226087169
 20
10.12948959058445
 30
0.0
 11
-5.745082226087169
 21
10.12948959058445
 31
0.0
  0
LINE
  5
269
330
10F
100
AcDbEntity
  8
0
 62
   252
370
     0
100
AcDbLine
 10
-3.835533923748949
 20
8.379710952859895
 30
0.0
 11
-3.835533923748949
 21
8.379710952859895
 31
0.0
  0
LINE
  5
26A
330
10F
100
AcDbEntity
  8
0
 62
   252
370
     0
100
AcDbLine
 10
4.935558620974261
 20
3.514968671720955
 30
0.0
 11
4.935558620974261
 21
3.514968671720955
 31
0.0
  0
LINE
  5
26B
330
10F
100
AcDbEntity
  8
0
 62
   252
370
     0
100
AcDbLine
 10
6.116986198890471
 20
2.432389752232433
 30
0.0
 11
6.116986198890471
 21
2.432389752232433
 31
0.0
  0
LINE
  5
26C
330
10F
100
AcDbEntity
  8
0
 62
   252
370
     0
100
AcDbLine
 10
7.999999999999998
 20
0.7069255051707284
 30
0.0
 11
7.999999999999998
 21
0.7069255051707284
 31
0.0
  0
LINE
  5
26D
330
10F
100
AcDbEntity
  8
0
 62
   252
370
     0
100
AcDbLine
 10
-0.8815595664576161
 20
8.845375409808515
 30
0.0
 11
-0.8815595664576161
 21
8.845375409808515
 31
0.0
  0
LINE
  5
26E
330
10F
100
AcDbEntity
  8
0
 62
   252
370
     0
100
AcDbLine
 10
0.3165161058588353
 20
7.747541322433067
 30
0.0
 11
0.3165161058588353
 21
7.747541322433067
 31
0.0
  0
LINE
  5
26F
330
10F
100
AcDbEntity
  8
0
 62
   252
370
     0
100
AcDbLine
 10
2.226064408197056
 20
5.997762684708507
 30
0.0
 11
2.226064408197056
 21
5.997762684708507
 31
0.0
  0
LINE
  5
270
330
10F
100
AcDbEntity
  8
0
 62
   252
370
     0
100
AcDbLine
 10
-4.324228199415749
 20
12.0
 30
0.0
 11
-4.324228199415749
 21
12.0
 31
0.0
  0
LINE
  5
271
330
10F
100
AcDbEntity
  8
0
 62
   252
370
     0
100
AcDbLine
 10
-4.041569022003173
 20
11.74099058411474
 30
0.0
 11
-4.041569022003173
 21
11.74099058411474
 31
0.0
  0
LINE
  5
272
330
10F
100
AcDbEntity
  8
0
 62
   252
370
     0
100
AcDbLine
 10
-3.591053779234822
 20
11.32816942279607
 30
0.0
 11
-3.591053779234822
 21
11.32816942279607
 31
0.0
  0
LINE
  5
273
330
10F
100
AcDbEntity
  8
0
 62
   252
370
     0
100
AcDbLine
 10
5.180038765488391
 20
6.463427141657126
 30
0.0
 11
5.180038765488391
 21
6.463427141657126
 31
0.0
  0
LINE
  5
274
330
10F
100
AcDbEntity
  8
0
 62
   252
370
     0
100
AcDbLine
 10
6.267212432411609
 20
5.467216019084546
 30
0.0
 11
6.267212432411609
 21
5.467216019084546
 31
0.0
  0
LINE
  5
275
330
10F
100
AcDbEntity
  8
0
 62
   252
370
     0
100
AcDbLine
 10
7.999999999999999
 20
3.879408752953481
 30
0.0
 11
7.999999999999999
 21
3.879408752953481
 31
0.0
  0
LINE
  5
276
330
10F
100
AcDbEntity
  8
0
 62
   252
370
     0
100
AcDbLine
 10
-0.6370794219434871
 20
11.79383387974469
 30
0.0
 11
-0.6370794219434871
 21
11.79383387974469
 31
0.0
  0
LINE
  5
277
330
10F
100
AcDbEntity
  8
0
 62
   252
370
     0
100
AcDbLine
 10
0.5609962503729643
 20
10.69599979236924
 30
0.0
 11
0.5609962503729643
 21
10.69599979236924
 31
0.0
  0
LINE
  5
278
330
10F
100
AcDbEntity
  8
0
 62
   252
370
     0
100
AcDbLine
 10
2.470544552711185
 20
8.946221154644677
 30
0.0
 11
2.470544552711185
 21
8.946221154644677
 31
0.0
  0
LINE
  5
279
330
10F
100
AcDbEntity
  8
0
 62
   252
370
     0
100
AcDbLine
 10
5.424518910002519
 20
9.411885611593299
 30
0.0
 11
5.424518910002519
 21
9.411885611593299
 31
0.0
  0
LINE
  5
27A
330
10F
100
AcDbEntity
  8
0
 62
   252
370
     0
100
AcDbLine
 10
6.417438665932745
 20
8.50204228593666
 30
0.0
 11
6.417438665932745
 21
8.50204228593666
 31
0.0
  0
LINE
  5
27B
330
10F
100
AcDbEntity
  8
0
 62
   252
370
     0
100
AcDbLine
 10
7.999999999999999
 20
7.051892000736235
 30
0.0
 11
7.999999999999999
 21
7.051892000736235
 31
0.0
  0
LINE
  5
27C
330
10F
100
AcDbEntity
  8
0
 62
   252
370
     0
100
AcDbLine
 10
2.600087676194587
 20
12.0
 30
0.0
 11
2.600087676194587
 21
12.0
 31
0.0
  0
LINE
  5
27D
330
10F
100
AcDbEntity
  8
0
 62
   252
370
     0
100
AcDbLine
 10
2.644399101858864
 20
11.95939605929867
 30
0.0
 11
2.644399101858864
 21
11.95939605929867
 31
0.0
  0
LINE
  5
27E
330
10F
100
AcDbEntity
  8
0
 62
   252
370
     0
100
AcDbLine
 10
2.715024697225313
 20
11.89467962458085
 30
0.0
 11
2.715024697225313
 21
11.89467962458085
 31
0.0
  0
LINE
  5
27F
330
10F
100
AcDbEntity
  8
0
 62
   252
370
     0
100
AcDbLine
 10
6.062245613999755
 20
12.0
 30
0.0
 11
6.062245613999755
 21
12.0
 31
0.0
  0
LINE
  5
280
330
10F
100
AcDbEntity
  8
0
 62
   252
370
     0
100
AcDbLine
 10
6.809303947866991
 20
11.31544715986793
 30
0.0
 11
6.809303947866991
 21
11.31544715986793
 31
0.0
  0
LINE
  5
281
330
10F
100
AcDbEntity
  8
0
 62
   252
370
     0
100
AcDbLine
 10
8.0
 20
10.22437524851898
 30
0.0
 11
8.0
 21
10.22437524851898
 31
0.0
  0
LINE
  5
282
330
10F
100
AcDbEntity
  8
0
 62
     7
370
    18
100
AcDbLine
 10
8.0
 20
12.0
 30
0.0
 11
7.999999999999998
 21
-0.0000000000000018
 31
0.0
  0
LINE
  5
283
330
10F
100
AcDbEntity
  8
0
 62
     7
370
    18
100
AcDbLine
 10
7.999999999999998
 20
-0.0000000000000018
 30
0.0
 11
-8.000000000000002
 21
0.0000000000000018
 31
0.0
  0
LINE
  5
284
330
10F
100
AcDbEntity
  8
0
 62
     7
370
    18
100
AcDbLine
 10
-8.000000000000002
 20
0.0000000000000018
 30
0.0
 11
-8.0
 21
12.0
 31
0.0
  0
LINE
  5
285
330
10F
100
AcDbEntity
  8
0
 62
     7
370
    18
100
AcDbLine
 10
-8.0
 20
12.0
 30
0.0
 11
8.0
 21
12.0
 31
0.0
  0
SOLID
  5
286
330
10F
100
AcDbEntity
  8
0
 62
     7
100
AcDbTrace
 10
-5.692943842421471
 20
9.882600206260932
 30
0.0
 11
-6.442943842421471
 21
9.132600206260932
 31
0.0
 12
-6.417388212138272
 22
9.326714490087824
 32
0.0
 13
-6.436527488451828
 23
9.23049485042597
 33
0.0
  0
SOLID
  5
287
330
10F
100
AcDbEntity
  8
0
 62
     7
100
AcDbTrace
 10
-5.692943842421471
 20
9.882600206260932
 30
0.0
 11
-6.417388212138272
 21
9.326714490087824
 31
0.0
 12
-6.3424628952598
 22
9.507600206260932
 32
0.0
 13
-6.385853491804935
 23
9.419612780534749
 33
0.0
  0
SOLID
  5
288
330
10F
100
AcDbEntity
  8
0
 62
     7
100
AcDbTrace
 10
-5.692943842421471
 20
9.882600206260932
 30
0.0
 11
-6.3424628952598
 21
9.507600206260932
 31
0.0
 12
-6.223273928311381
 22
9.662930292150843
 32
0.0
 13
-6.287958847639898
 23
9.589171278017472
 33
0.0
  0
SOLID
  5
289
330
10F
100
AcDbEntity
  8
0
 62
     7
100
AcDbTrace
 10
-5.692943842421471
 20
9.882600206260932
 30
0.0
 11
-6.223273928311381
 21
9.662930292150843
 31
0.0
 12
-6.067943842421471
 22
9.782119259099261
 32
0.0
 13
-6.149514914178011
 23
9.727615211479359
 33
0.0
  0
SOLID
  5
28A
330
10F
100
AcDbEntity
  8
0
 62
     7
100
AcDbTrace
 10
-5.692943842421471
 20
9.882600206260932
 30
0.0
 11
-6.067943842421471
 21
9.782119259099261
 31
0.0
 12
-5.887058126248362
 22
9.857044575977733
 32
0.0
 13
-5.979956416695289
 23
9.825509855644396
 33
0.0
  0
SOLID
  5
28B
330
10F
100
AcDbEntity
  8
0
 62
     7
100
AcDbTrace
 10
-5.692943842421471
 20
9.882600206260932
 30
0.0
 11
-5.887058126248362
 21
9.857044575977733
 31
0.0
 12
-5.692943842421471
 22
9.882600206260932
 32
0.0
 13
-5.79083848658651
 23
9.87618385229129
 33
0.0
  0
SOLID
  5
28C
330
10F
100
AcDbEntity
  8
0
 62
     7
100
AcDbTrace
 10
-0.6929438424214709
 20
9.132600206260932
 30
0.0
 11
-1.442943842421471
 21
9.882600206260932
 31
0.0
 12
-1.24882955859458
 22
9.857044575977733
 32
0.0
 13
-1.345049198256432
 23
9.87618385229129
 33
0.0
  0
SOLID
  5
28D
330
10F
100
AcDbEntity
  8
0
 62
     7
100
AcDbTrace
 10
-0.6929438424214709
 20
9.132600206260932
 30
0.0
 11
-1.24882955859458
 21
9.857044575977733
 31
0.0
 12
-1.067943842421471
 22
9.782119259099261
 32
0.0
 13
-1.155931268147653
 23
9.825509855644396
 33
0.0
  0
SOLID
  5
28E
330
10F
100
AcDbEntity
  8
0
 62
     7
100
AcDbTrace
 10
-0.6929438424214709
 20
9.132600206260932
 30
0.0
 11
-1.067943842421471
 21
9.782119259099261
 31
0.0
 12
-0.9126137565315602
 22
9.662930292150843
 32
0.0
 13
-0.9863727706649303
 23
9.727615211479359
 33
0.0
  0
SOLID
  5
28F
330
10F
100
AcDbEntity
  8
0
 62
     7
100
AcDbTrace
 10
-0.6929438424214709
 20
9.132600206260932
 30
0.0
 11
-0.9126137565315602
 21
9.662930292150843
 31
0.0
 12
-0.7934247895831419
 22
9.507600206260932
 32
0.0
 13
-0.8479288372030445
 23
9.589171278017472
 33
0.0
  0
SOLID
  5
290
330
10F
100
AcDbEntity
  8
0
 62
     7
100
AcDbTrace
 10
-0.6929438424214709
 20
9.132600206260932
 30
0.0
 11
-0.7934247895831419
 21
9.507600206260932
 31
0.0
 12
-0.7184994727046696
 22
9.326714490087822
 32
0.0
 13
-0.7500341930380059
 23
9.419612780534749
 33
0.0
  0
SOLID
  5
291
330
10F
100
AcDbEntity
  8
0
 62
     7
100
AcDbTrace
 10
-0.6929438424214709
 20
9.132600206260932
 30
0.0
 11
-0.7184994727046696
 21
9.326714490087822
 31
0.0
 12
-0.6929438424214709
 22
9.132600206260932
 32
0.0
 13
-0.6993601963911131
 23
9.23049485042597
 33
0.0
  0
SOLID
  5
292
330
10F
100
AcDbEntity
  8
0
 62
     7
100
AcDbTrace
 10
-1.442943842421471
 20
1.898065034671404
 30
0.0
 11
-0.6929438424214709
 21
2.648065034671404
 31
0.0
 12
-0.7184994727046696
 22
2.453950750844514
 32
0.0
 13
-0.6993601963911131
 23
2.550170390506366
 33
0.0
  0
SOLID
  5
293
330
10F
100
AcDbEntity
  8
0
 62
     7
100
AcDbTrace
 10
-1.442943842421471
 20
1.898065034671404
 30
0.0
 11
-0.7184994727046696
 21
2.453950750844514
 31
0.0
 12
-0.7934247895831419
 22
2.273065034671404
 32
0.0
 13
-0.7500341930380059
 23
2.361052460397587
 33
0.0
  0
SOLID
  5
294
330
10F
100
AcDbEntity
  8
0
 62
     7
100
AcDbTrace
 10
-1.442943842421471
 20
1.898065034671404
 30
0.0
 11
-0.7934247895831419
 21
2.273065034671404
 31
0.0
 12
-0.9126137565315602
 22
2.117734948781494
 32
0.0
 13
-0.8479288372030445
 23
2.191493962914864
 33
0.0
  0
SOLID
  5
295
330
10F
100
AcDbEntity
  8
0
 62
     7
100
AcDbTrace
 10
-1.442943842421471
 20
1.898065034671404
 30
0.0
 11
-0.9126137565315602
 21
2.117734948781494
 31
0.0
 12
-1.067943842421471
 22
1.998545981833075
 32
0.0
 13
-0.9863727706649303
 23
2.053050029452978
 33
0.0
  0
SOLID
  5
296
330
10F
100
AcDbEntity
  8
0
 62
     7
100
AcDbTrace
 10
-1.442943842421471
 20
1.898065034671404
 30
0.0
 11
-1.067943842421471
 21
1.998545981833075
 31
0.0
 12
-1.24882955859458
 22
1.923620664954603
 32
0.0
 13
-1.155931268147653
 23
1.955155385287939
 33
0.0
  0
SOLID
  5
297
330
10F
100
AcDbEntity
  8
0
 62
     7
100
AcDbTrace
 10
-1.442943842421471
 20
1.898065034671404
 30
0.0
 11
-1.24882955859458
 21
1.923620664954603
 31
0.0
 12
-1.442943842421471
 22
1.898065034671404
 32
0.0
 13
-1.345049198256432
 23
1.904481388641047
 33
0.0
  0
SOLID
  5
298
330
10F
100
AcDbEntity
  8
0
 62
     7
100
AcDbTrace
 10
-6.442943842421471
 20
2.648065034671404
 30
0.0
 11
-5.692943842421471
 21
1.898065034671404
 31
0.0
 12
-5.887058126248362
 22
1.923620664954603
 32
0.0
 13
-5.79083848658651
 23
1.904481388641047
 33
0.0
  0
SOLID
  5
299
330
10F
100
AcDbEntity
  8
0
 62
     7
100
AcDbTrace
 10
-6.442943842421471
 20
2.648065034671404
 30
0.0
 11
-5.887058126248362
 21
1.923620664954603
 31
0.0
 12
-6.067943842421471
 22
1.998545981833076
 32
0.0
 13
-5.979956416695288
 23
1.955155385287939
 33
0.0
  0
SOLID
  5
29A
330
10F
100
AcDbEntity
  8
0
 62
     7
100
AcDbTrace
 10
-6.442943842421471
 20
2.648065034671404
 30
0.0
 11
-6.067943842421471
 21
1.998545981833076
 31
0.0
 12
-6.223273928311381
 22
2.117734948781494
 32
0.0
 13
-6.149514914178011
 23
2.053050029452978
 33
0.0
  0
SOLID
  5
29B
330
10F
100
AcDbEntity
  8
0
 62
     7
100
AcDbTrace
 10
-6.442943842421471
 20
2.648065034671404
 30
0.0
 11
-6.223273928311381
 21
2.117734948781494
 31
0.0
 12
-6.3424628952598
 22
2.273065034671404
 32
0.0
 13
-6.287958847639898
 23
2.191493962914864
 33
0.0
  0
SOLID
  5
29C
330
10F
100
AcDbEntity
  8
0
 62
     7
100
AcDbTrace
 10
-6.442943842421471
 20
2.648065034671404
 30
0.0
 11
-6.3424628952598
 21
2.273065034671404
 31
0.0
 12
-6.417388212138272
 22
2.453950750844514
 32
0.0
 13
-6.385853491804936
 23
2.361052460397588
 33
0.0
  0
SOLID
  5
29D
330
10F
100
AcDbEntity
  8
0
 62
     7
100
AcDbTrace
 10
-6.442943842421471
 20
2.648065034671404
 30
0.0
 11
-6.417388212138272
 21
2.453950750844514
 31
0.0
 12
-6.442943842421471
 22
2.648065034671404
 32
0.0
 13
-6.436527488451829
 23
2.550170390506366
 33
0.0
  0
SOLID
  5
29E
330
10F
100
AcDbEntity
  8
0
 62
     7
100
AcDbTrace
 10
-6.442943842421471
 20
9.132600206260932
 30
0.0
 11
-5.692943842421471
 21
9.882600206260932
 31
0.0
 12
-0.6929438424214709
 22
9.132600206260932
 32
0.0
 13
-1.442943842421471
 23
9.882600206260932
 33
0.0
  0
SOLID
  5
29F
330
10F
100
AcDbEntity
  8
0
 62
     7
100
AcDbTrace
 10
-6.442943842421471
 20
9.132600206260932
 30
0.0
 11
-0.6929438424214709
 21
9.132600206260932
 31
0.0
 12
-1.442943842421471
 22
1.898065034671404
 32
0.0
 13
-0.6929438424214709
 23
2.648065034671404
 33
0.0
  0
SOLID
  5
2A0
330
10F
100
AcDbEntity
  8
0
 62
     7
100
AcDbTrace
 10
-6.442943842421471
 20
9.132600206260932
 30
0.0
 11
-1.442943842421471
 21
1.898065034671404
 31
0.0
 12
-6.442943842421471
 22
2.648065034671404
 32
0.0
 13
-5.692943842421471
 23
1.898065034671404
 33
0.0
  0
LWPOLYLINE
  5
2A1
330
10F
100
AcDbEntity
  8
0
 62
     7
100
AcDbPolyline
 90
        8
 70
     1
 43
0.0
 10
-6.442943842421471
 20
9.132600206260932
 42
-0.414213562373095
 10
-5.692943842421471
 20
9.882600206260932
 10
-1.442943842421471
 20
9.882600206260932
 42
-0.414213562373095
 10
-0.6929438424214709
 20
9.132600206260932
 10
-0.6929438424214709
 20
2.648065034671404
 42
-0.414213562373095
 10
-1.442943842421471
 20
1.898065034671404
 10
-5.692943842421471
 20
1.898065034671404
 42
-0.414213562373095
 10
-6.442943842421471
 20
2.648065034671404
  0
SOLID
  5
2A2
330
10F
100
AcDbEntity
  8
0
 62
     7
100
AcDbTrace
 10
1.412848266088645
 20
9.882600206260932
 30
0.0
 11
0.6628482660886448
 21
9.132600206260932
 31
0.0
 12
0.6884038963718436
 22
9.326714490087824
 32
0.0
 13
0.669264620058287
 23
9.23049485042597
 33
0.0
  0
SOLID
  5
2A3
330
10F
100
AcDbEntity
  8
0
 62
     7
100
AcDbTrace
 10
1.412848266088645
 20
9.882600206260932
 30
0.0
 11
0.6884038963718436
 21
9.326714490087824
 31
0.0
 12
0.7633292132503158
 22
9.507600206260932
 32
0.0
 13
0.7199386167051798
 23
9.419612780534749
 33
0.0
  0
SOLID
  5
2A4
330
10F
100
AcDbEntity
  8
0
 62
     7
100
AcDbTrace
 10
1.412848266088645
 20
9.882600206260932
 30
0.0
 11
0.7633292132503158
 21
9.507600206260932
 31
0.0
 12
0.8825181801987342
 22
9.662930292150843
 32
0.0
 13
0.8178332608702183
 23
9.589171278017472
 33
0.0
  0
SOLID
  5
2A5
330
10F
100
AcDbEntity
  8
0
 62
     7
100
AcDbTrace
 10
1.412848266088645
 20
9.882600206260932
 30
0.0
 11
0.8825181801987342
 21
9.662930292150843
 31
0.0
 12
1.037848266088645
 22
9.782119259099261
 32
0.0
 13
0.9562771943321042
 23
9.727615211479359
 33
0.0
  0
SOLID
  5
2A6
330
10F
100
AcDbEntity
  8
0
 62
     7
100
AcDbTrace
 10
1.412848266088645
 20
9.882600206260932
 30
0.0
 11
1.037848266088645
 21
9.782119259099261
 31
0.0
 12
1.218733982261754
 22
9.857044575977733
 32
0.0
 13
1.125835691814828
 23
9.825509855644396
 33
0.0
  0
SOLID
  5
2A7
330
10F
100
AcDbEntity
  8
0
 62
     7
100
AcDbTrace
 10
1.412848266088645
 20
9.882600206260932
 30
0.0
 11
1.218733982261754
 21
9.857044575977733
 31
0.0
 12
1.412848266088645
 22
9.882600206260932
 32
0.0
 13
1.314953621923606
 23
9.87618385229129
 33
0.0
  0
SOLID
  5
2A8
330
10F
100
AcDbEntity
  8
0
 62
     7
100
AcDbTrace
 10
6.412848266088645
 20
9.132600206260932
 30
0.0
 11
5.662848266088645
 21
9.882600206260932
 31
0.0
 12
5.856962549915536
 22
9.857044575977733
 32
0.0
 13
5.760742910253684
 23
9.87618385229129
 33
0.0
  0
SOLID
  5
2A9
330
10F
100
AcDbEntity
  8
0
 62
     7
100
AcDbTrace
 10
6.412848266088645
 20
9.132600206260932
 30
0.0
 11
5.856962549915536
 21
9.857044575977733
 31
0.0
 12
6.037848266088645
 22
9.782119259099261
 32
0.0
 13
5.949860840362462
 23
9.825509855644396
 33
0.0
  0
SOLID
  5
2AA
330
10F
100
AcDbEntity
  8
0
 62
     7
100
AcDbTrace
 10
6.412848266088645
 20
9.132600206260932
 30
0.0
 11
6.037848266088645
 21
9.782119259099261
 31
0.0
 12
6.193178351978555
 22
9.662930292150843
 32
0.0
 13
6.119419337845185
 23
9.727615211479359
 33
0.0
  0
SOLID
  5
2AB
330
10F
100
AcDbEntity
  8
0
 62
     7
100
AcDbTrace
 10
6.412848266088645
 20
9.132600206260932
 30
0.0
 11
6.193178351978555
 21
9.662930292150843
 31
0.0
 12
6.312367318926974
 22
9.507600206260932
 32
0.0
 13
6.257863271307071
 23
9.589171278017472
 33
0.0
  0
SOLID
  5
2AC
330
10F
100
AcDbEntity
  8
0
 62
     7
100
AcDbTrace
 10
6.412848266088645
 20
9.132600206260932
 30
0.0
 11
6.312367318926974
 21
9.507600206260932
 31
0.0
 12
6.387292635805446
 22
9.326714490087822
 32
0.0
 13
6.355757915472109
 23
9.419612780534749
 33
0.0
  0
SOLID
  5
2AD
330
10F
100
AcDbEntity
  8
0
 62
     7
100
AcDbTrace
 10
6.412848266088645
 20
9.132600206260932
 30
0.0
 11
6.387292635805446
 21
9.326714490087822
 31
0.0
 12
6.412848266088645
 22
9.132600206260932
 32
0.0
 13
6.406431912119002
 23
9.23049485042597
 33
0.0
  0
SOLID
  5
2AE
330
10F
100
AcDbEntity
  8
0
 62
     7
100
AcDbTrace
 10
5.662848266088645
 20
1.898065034671404
 30
0.0
 11
6.412848266088645
 21
2.648065034671404
 31
0.0
 12
6.387292635805446
 22
2.453950750844514
 32
0.0
 13
6.406431912119002
 23
2.550170390506366
 33
0.0
  0
SOLID
  5
2AF
330
10F
100
AcDbEntity
  8
0
 62
     7
100
AcDbTrace
 10
5.662848266088645
 20
1.898065034671404
 30
0.0
 11
6.387292635805446
 21
2.453950750844514
 31
0.0
 12
6.312367318926974
 22
2.273065034671404
 32
0.0
 13
6.355757915472109
 23
2.361052460397587
 33
0.0
  0
SOLID
  5
2B0
330
10F
100
AcDbEntity
  8
0
 62
     7
100
AcDbTrace
 10
5.662848266088645
 20
1.898065034671404
 30
0.0
 11
6.312367318926974
 21
2.273065034671404
 31
0.0
 12
6.193178351978555
 22
2.117734948781494
 32
0.0
 13
6.257863271307071
 23
2.191493962914864
 33
0.0
  0
SOLID
  5
2B1
330
10F
100
AcDbEntity
  8
0
 62
     7
100
AcDbTrace
 10
5.662848266088645
 20
1.898065034671404
 30
0.0
 11
6.193178351978555
 21
2.117734948781494
 31
0.0
 12
6.037848266088645
 22
1.998545981833075
 32
0.0
 13
6.119419337845185
 23
2.053050029452978
 33
0.0
  0
SOLID
  5
2B2
330
10F
100
AcDbEntity
  8
0
 62
     7
100
AcDbTrace
 10
5.662848266088645
 20
1.898065034671404
 30
0.0
 11
6.037848266088645
 21
1.998545981833075
 31
0.0
 12
5.856962549915536
 22
1.923620664954603
 32
0.0
 13
5.949860840362462
 23
1.955155385287939
 33
0.0
  0
SOLID
  5
2B3
330
10F
100
AcDbEntity
  8
0
 62
     7
100
AcDbTrace
 10
5.662848266088645
 20
1.898065034671404
 30
0.0
 11
5.856962549915536
 21
1.923620664954603
 31
0.0
 12
5.662848266088645
 22
1.898065034671404
 32
0.0
 13
5.760742910253684
 23
1.904481388641047
 33
0.0
  0
SOLID
  5
2B4
330
10F
100
AcDbEntity
  8
0
 62
     7
100
AcDbTrace
 10
0.6628482660886448
 20
2.648065034671404
 30
0.0
 11
1.412848266088645
 21
1.898065034671404
 31
0.0
 12
1.218733982261754
 22
1.923620664954603
 32
0.0
 13
1.314953621923606
 23
1.904481388641047
 33
0.0
  0
SOLID
  5
2B5
330
10F
100
AcDbEntity
  8
0
 62
     7
100
AcDbTrace
 10
0.6628482660886448
 20
2.648065034671404
 30
0.0
 11
1.218733982261754
 21
1.923620664954603
 31
0.0
 12
1.037848266088644
 22
1.998545981833076
 32
0.0
 13
1.125835691814828
 23
1.955155385287939
 33
0.0
  0
SOLID
  5
2B6
330
10F
100
AcDbEntity
  8
0
 62
     7
100
AcDbTrace
 10
0.6628482660886448
 20
2.648065034671404
 30
0.0
 11
1.037848266088644
 21
1.998545981833076
 31
0.0
 12
0.8825181801987341
 22
2.117734948781494
 32
0.0
 13
0.9562771943321041
 23
2.053050029452978
 33
0.0
  0
SOLID
  5
2B7
330
10F
100
AcDbEntity
  8
0
 62
     7
100
AcDbTrace
 10
0.6628482660886448
 20
2.648065034671404
 30
0.0
 11
0.8825181801987341
 21
2.117734948781494
 31
0.0
 12
0.7633292132503158
 22
2.273065034671404
 32
0.0
 13
0.8178332608702183
 23
2.191493962914864
 33
0.0
  0
SOLID
  5
2B8
330
10F
100
AcDbEntity
  8
0
 62
     7
100
AcDbTrace
 10
0.6628482660886448
 20
2.648065034671404
 30
0.0
 11
0.7633292132503158
 21
2.273065034671404
 31
0.0
 12
0.6884038963718435
 22
2.453950750844514
 32
0.0
 13
0.7199386167051796
 23
2.361052460397588
 33
0.0
  0
SOLID
  5
2B9
330
10F
100
AcDbEntity
  8
0
 62
     7
100
AcDbTrace
 10
0.6628482660886448
 20
2.648065034671404
 30
0.0
 11
0.6884038963718435
 21
2.453950750844514
 31
0.0
 12
0.6628482660886448
 22
2.648065034671404
 32
0.0
 13
0.6692646200582869
 23
2.550170390506366
 33
0.0
  0
SOLID
  5
2BA
330
10F
100
AcDbEntity
  8
0
 62
     7
100
AcDbTrace
 10
0.6628482660886448
 20
9.132600206260932
 30
0.0
 11
1.412848266088645
 21
9.882600206260932
 31
0.0
 12
6.412848266088645
 22
9.132600206260932
 32
0.0
 13
5.662848266088645
 23
9.882600206260932
 33
0.0
  0
SOLID
  5
2BB
330
10F
100
AcDbEntity
  8
0
 62
     7
100
AcDbTrace
 10
0.6628482660886448
 20
9.132600206260932
 30
0.0
 11
6.412848266088645
 21
9.132600206260932
 31
0.0
 12
5.662848266088645
 22
1.898065034671404
 32
0.0
 13
6.412848266088645
 23
2.648065034671404
 33
0.0
  0
SOLID
  5
2BC
330
10F
100
AcDbEntity
  8
0
 62
     7
100
AcDbTrace
 10
0.6628482660886448
 20
9.132600206260932
 30
0.0
 11
5.662848266088645
 21
1.898065034671404
 31
0.0
 12
0.6628482660886448
 22
2.648065034671404
 32
0.0
 13
1.412848266088645
 23
1.898065034671404
 33
0.0
  0
LWPOLYLINE
  5
2BD
330
10F
100
AcDbEntity
  8
0
 62
     7
100
AcDbPolyline
 90
        8
 70
     1
 43
0.0
 10
0.6628482660886448
 20
9.132600206260932
 42
-0.414213562373095
 10
1.412848266088645
 20
9.882600206260932
 10
5.662848266088645
 20
9.882600206260932
 42
-0.414213562373095
 10
6.412848266088645
 20
9.132600206260932
 10
6.412848266088645
 20
2.648065034671404
 42
-0.414213562373095
 10
5.662848266088645
 20
1.898065034671404
 10
1.412848266088645
 20
1.898065034671404
 42
-0.414213562373095
 10
0.6628482660886448
 20
2.648065034671404
  0
ENDBLK
  5
2BF
330
10F
100
AcDbEntity
  8
0
100
AcDbBlockEnd
  0
BLOCK
  5
2EC
330
2E9
100
AcDbEntity
  8
0
100
AcDbBlockBegin
  2
block9_0
 70
     0
 10
0.0
 20
0.0
 30
0.0
  3
block9_0
  1

  0
SOLID
  5
2EA
330
2E9
100
AcDbEntity
  8
0
 62
   254
100
AcDbTrace
 10
3.687499999999943
 20
0.0
 30
0.0
 11
-3.687499999999936
 21
0.0
 31
0.0
 12
3.687499999999943
 22
0.375
 32
0.0
 13
-3.687499999999936
 23
0.375
 33
0.0
  0
LWPOLYLINE
  5
2EB
330
2E9
100
AcDbEntity
  8
0
 62
   251
100
AcDbPolyline
 90
        4
 70
     1
 43
0.0
 10
-3.687499999999936
 20
0.0
 10
-3.687499999999936
 20
0.375
 10
3.687499999999943
 20
0.375
 10
3.687499999999943
 20
0.0
  0
ENDBLK
  5
2ED
330
2E9
100
AcDbEntity
  8
0
100
AcDbBlockEnd
  0
BLOCK
  5
3F3
330
3E5
100
AcDbEntity
  8
0
100
AcDbBlockBegin
  2
block35_1
 70
     0
 10
0.0
 20
0.0
 30
0.0
  3
block35_1
  1

  0
SOLID
  5
3E6
330
3E5
100
AcDbEntity
  8
0
 62
     7
100
AcDbTrace
 10
-2.165420654478453
 20
11.38833587986255
 30
0.0
 11
-0.9238894089587575
 21
9.977601040287482
 31
0.0
 12
-2.165420654478453
 22
11.38833587986255
 32
0.0
 13
-3.55216053188235
 23
9.999144246213064
 33
0.0
  0
SOLID
  5
3E7
330
3E5
100
AcDbEntity
  8
0
 62
     7
100
AcDbTrace
 10
-0.9238894089587575
 20
9.977601040287482
 30
0.0
 11
-2.165420654478453
 21
11.38833587986255
 31
0.0
 12
2.29405656344511
 22
20.99095895392065
 32
0.0
 13
-2.152160075759298
 23
20.03351407291211
 33
0.0
  0
SOLID
  5
3E8
330
3E5
100
AcDbEntity
  8
0
 62
     7
100
AcDbTrace
 10
-0.9238894089587575
 20
9.977601040287482
 30
0.0
 11
2.29405656344511
 21
20.99095895392065
 31
0.0
 12
0.931777161761943
 22
10.95530735246791
 32
0.0
 13
2.305395815708607
 23
12.32892600641469
 33
0.0
  0
SOLID
  5
3E9
330
3E5
100
AcDbEntity
  8
0
 62
     7
100
AcDbTrace
 10
2.276013598511895
 20
9.691872013008947
 30
0.0
 11
0.9317771617619428
 21
10.95530735246791
 31
0.0
 12
2.276013598511895
 22
9.691872013008947
 32
0.0
 13
3.532103383671711
 23
10.94796179816876
 33
0.0
  0
SOLID
  5
3EA
330
3E5
100
AcDbEntity
  8
0
 62
     7
100
AcDbTrace
 10
0.9317771617619428
 20
10.95530735246791
 30
0.0
 11
2.276013598511895
 21
9.691872013008947
 31
0.0
 12
-2.171759599618554
 22
0.0040937347157524
 32
0.0
 13
2.299405006502866
 23
0.959624880378783
 33
0.0
  0
SOLID
  5
3EB
330
3E5
100
AcDbEntity
  8
0
 62
     7
100
AcDbTrace
 10
0.9317771617619428
 20
10.95530735246791
 30
0.0
 11
-2.171759599618554
 21
0.0040937347157524
 31
0.0
 12
-0.9238894089587575
 22
9.977601040287482
 32
0.0
 13
-2.173395352643752
 23
8.728095096602488
 33
0.0
  0
LWPOLYLINE
  5
3EC
330
3E5
100
AcDbEntity
  8
0
 62
     7
100
AcDbPolyline
 90
       12
 70
     1
 43
0.0
 10
2.29405656344511
 20
20.99095895392065
 10
2.305395815708607
 20
12.32892600641469
 10
0.9317771617619428
 20
10.95530735246791
 10
3.532103383671711
 20
10.94796179816876
 10
2.276013598511895
 20
9.691872013008947
 10
2.299405006502866
 20
0.959624880378783
 10
-2.171759599618554
 20
0.0040937347157524
 10
-2.173395352643752
 20
8.728095096602488
 10
-0.9238894089587575
 20
9.977601040287482
 10
-3.55216053188235
 20
9.999144246213064
 10
-2.165420654478453
 20
11.38833587986255
 10
-2.152160075759298
 20
20.03351407291211
  0
INSERT
  5
3F1
330
3E5
100
AcDbEntity
  8
0
  6
Continuous
370
     0
100
AcDbBlockReference
  2
Break_Line
 10
-2.241479588573725
 20
0.0
 30
0.0
1001
CHIEFARC-LNWT
1070
     0
  0
INSERT
  5
3F2
330
3E5
100
AcDbEntity
  8
0
100
AcDbBlockReference
  2
Break_Line
 10
2.242375747515894
 20
0.9608261434477754
 30
0.0
  0
ENDBLK
  5
3F4
330
3E5
100
AcDbEntity
  8
0
100
AcDbBlockEnd
  0
BLOCK
  5
3EF
330
3ED
100
AcDbEntity
  8
0
100
AcDbBlockBegin
  2
Break_Line
 70
     0
 10
0.0
 20
0.0
 30
0.0
  3
Break_Line
  1

  0
LWPOLYLINE
  5
3EE
330
3ED
100
AcDbEntity
  8
0
100
AcDbPolyline
 90
        6
 70
     0
 43
0.0
 10
0.0758531737247452
 20
20.02936230674345
 10
0.0758531737247452
 20
11.37178725632516
 10
-1.309784784366492
 20
9.986149298233912
 10
1.309784784366492
 20
9.986149298233954
 10
0.0726287886091581
 20
8.74899330247662
 10
0.0726287886091583
 20
0.0000000000000284
  0
ENDBLK
  5
3F0
330
3ED
100
AcDbEntity
  8
0
100
AcDbBlockEnd
  0
BLOCK
  5
413
330
40A
100
AcDbEntity
  8
0
100
AcDbBlockBegin
  2
block34_1
 70
     0
 10
0.0
 20
0.0
 30
0.0
  3
block34_1
  1

  0
SOLID
  5
40B
330
40A
100
AcDbEntity
  8
0
 62
     7
100
AcDbTrace
 10
-2.155392080373076
 20
11.38833587986255
 30
0.0
 11
-0.9138608348533808
 21
9.977601040287482
 31
0.0
 12
-2.155392080373076
 22
11.38833587986255
 32
0.0
 13
-3.542131957776974
 23
9.999144246213064
 33
0.0
  0
SOLID
  5
40C
330
40A
100
AcDbEntity
  8
0
 62
     7
100
AcDbTrace
 10
-0.9138608348533808
 20
9.977601040287482
 30
0.0
 11
-2.155392080373076
 21
11.38833587986255
 31
0.0
 12
2.304085137550487
 22
20.99095895392065
 32
0.0
 13
-2.142131501653921
 23
20.03351407291211
 33
0.0
  0
SOLID
  5
40D
330
40A
100
AcDbEntity
  8
0
 62
     7
100
AcDbTrace
 10
-0.9138608348533808
 20
9.977601040287482
 30
0.0
 11
2.304085137550487
 21
20.99095895392065
 31
0.0
 12
0.9418057358673197
 22
10.95530735246791
 32
0.0
 13
2.315424389813984
 23
12.32892600641469
 33
0.0
  0
SOLID
  5
40E
330
40A
100
AcDbEntity
  8
0
 62
     7
100
AcDbTrace
 10
2.286042172617272
 20
9.691872013008947
 30
0.0
 11
0.9418057358673195
 21
10.95530735246791
 31
0.0
 12
2.286042172617272
 22
9.691872013008947
 32
0.0
 13
3.542131957777087
 23
10.94796179816876
 33
0.0
  0
SOLID
  5
40F
330
40A
100
AcDbEntity
  8
0
 62
     7
100
AcDbTrace
 10
0.9418057358673195
 20
10.95530735246791
 30
0.0
 11
2.286042172617272
 21
9.691872013008947
 31
0.0
 12
-2.161731025513177
 22
0.0040937347157524
 32
0.0
 13
2.309433580608243
 23
0.959624880378783
 33
0.0
  0
SOLID
  5
410
330
40A
100
AcDbEntity
  8
0
 62
     7
100
AcDbTrace
 10
0.9418057358673195
 20
10.95530735246791
 30
0.0
 11
-2.161731025513177
 21
0.0040937347157524
 31
0.0
 12
-0.9138608348533808
 22
9.977601040287482
 32
0.0
 13
-2.163366778538375
 23
8.728095096602488
 33
0.0
  0
LWPOLYLINE
  5
411
330
40A
100
AcDbEntity
  8
0
 62
     7
100
AcDbPolyline
 90
       12
 70
     1
 43
0.0
 10
2.304085137550487
 20
20.99095895392065
 10
2.315424389813984
 20
12.32892600641469
 10
0.9418057358673195
 20
10.95530735246791
 10
3.542131957777087
 20
10.94796179816876
 10
2.286042172617272
 20
9.691872013008947
 10
2.309433580608243
 20
0.959624880378783
 10
-2.161731025513177
 20
0.0040937347157524
 10
-2.163366778538375
 20
8.728095096602488
 10
-0.9138608348533808
 20
9.977601040287482
 10
-3.542131957776974
 20
9.999144246213064
 10
-2.155392080373076
 20
11.38833587986255
 10
-2.142131501653921
 20
20.03351407291211
  0
INSERT
  5
412
330
40A
100
AcDbEntity
  8
0
100
AcDbBlockReference
  2
Break_Line
 10
-2.231451014468348
 20
0.0
 30
0.0
  0
ENDBLK
  5
414
330
40A
100
AcDbEntity
  8
0
100
AcDbBlockEnd
  0
ENDSEC
  0
SECTION
  2
ENTITIES
  0
SOLID
  5
3D
330
1F
100
AcDbEntity
  8
_DEFAULT_CAD_LAYER
 62
     7
100
AcDbTrace
 10
554.3019728561133
 20
579.4129919217894
 30
0.0
 11
554.3019728561133
 21
577.7918591143533
 31
0.0
 12
539.9073293608415
 22
579.4129919217894
 32
0.0
 13
539.9073293608415
 23
577.7918591143533
 33
0.0
  0
LINE
  5
3E
330
1F
100
AcDbEntity
  8
_DEFAULT_CAD_LAYER
 62
     7
100
AcDbLine
 10
554.3019728561133
 20
579.4129919217894
 30
0.0
 11
554.3019728561133
 21
577.7918591143533
 31
0.0
  0
LINE
  5
3F
330
1F
100
AcDbEntity
  8
_DEFAULT_CAD_LAYER
 62
     7
100
AcDbLine
 10
554.3019728561133
 20
577.7918591143533
 30
0.0
 11
539.9073293608415
 21
577.7918591143533
 31
0.0
  0
LINE
  5
40
330
1F
100
AcDbEntity
  8
_DEFAULT_CAD_LAYER
 62
     7
100
AcDbLine
 10
539.9073293608415
 20
577.7918591143533
 30
0.0
 11
539.9073293608415
 21
579.4129919217894
 31
0.0
  0
LINE
  5
41
330
1F
100
AcDbEntity
  8
_DEFAULT_CAD_LAYER
 62
     7
100
AcDbLine
 10
539.9073293608415
 20
579.4129919217894
 30
0.0
 11
554.3019728561133
 21
579.4129919217894
 31
0.0
  0
LINE
  5
42
330
1F
100
AcDbEntity
  8
_DEFAULT_CAD_LAYER
 62
     7
370
     0
100
AcDbLine
 10
554.8396657224757
 20
578.6527068405668
 30
0.0
 11
554.9601883992921
 21
578.7963401736516
 31
0.0
  0
LINE
  5
43
330
1F
100
AcDbEntity
  8
_DEFAULT_CAD_LAYER
 62
     7
370
     0
100
AcDbLine
 10
554.5816400919772
 20
580.6390777044983
 30
0.0
 11
554.6133100645827
 21
580.6768205081275
 31
0.0
  0
LINE
  5
44
330
1F
100
AcDbEntity
  8
_DEFAULT_CAD_LAYER
 62
     7
370
     0
100
AcDbLine
 10
554.8396659749101
 20
578.6527069560843
 30
0.0
 11
554.9890951796237
 21
578.6396335946722
 31
0.0
  0
LINE
  5
45
330
1F
100
AcDbEntity
  8
_DEFAULT_CAD_LAYER
 62
     7
370
     0
100
AcDbLine
 10
554.5805981393413
 20
580.525504867186
 30
0.0
 11
554.6422168455916
 21
580.5201139289271
 31
0.0
  0
LINE
  5
46
330
1F
100
AcDbEntity
  8
_DEFAULT_CAD_LAYER
 62
     7
370
     0
100
AcDbLine
 10
554.9895417148873
 20
578.6391957066844
 30
0.0
 11
554.9606353102605
 21
578.7959024189026
 31
0.0
  0
LINE
  5
47
330
1F
100
AcDbEntity
  8
_DEFAULT_CAD_LAYER
 62
     7
370
     0
100
AcDbLine
 10
554.6426648493871
 20
580.5196763073915
 30
0.0
 11
554.6137584447602
 21
580.6763830196098
 31
0.0
  0
LINE
  5
48
330
1F
100
AcDbEntity
  8
_DEFAULT_CAD_LAYER
 62
     7
370
     0
100
AcDbLine
 10
554.5741281183942
 20
577.9957447713555
 30
0.0
 11
554.7491744483626
 21
578.0629387618952
 31
0.0
  0
LINE
  5
49
330
1F
100
AcDbEntity
  8
_DEFAULT_CAD_LAYER
 62
     7
370
     0
100
AcDbLine
 10
555.1824164477168
 20
579.8086198844958
 30
0.0
 11
555.2842374150297
 21
579.8477052918597
 31
0.0
  0
LINE
  5
4A
330
1F
100
AcDbEntity
  8
_DEFAULT_CAD_LAYER
 62
     7
370
     0
100
AcDbLine
 10
554.5741283841099
 20
577.9957446294044
 30
0.0
 11
554.6984840199932
 21
577.9118656938838
 31
0.0
  0
LINE
  5
4B
330
1F
100
AcDbEntity
  8
_DEFAULT_CAD_LAYER
 62
     7
370
     0
100
AcDbLine
 10
555.1824167139138
 20
579.8086197420212
 30
0.0
 11
555.3067723497971
 21
579.7247408065009
 31
0.0
  0
LINE
  5
4C
330
1F
100
AcDbEntity
  8
_DEFAULT_CAD_LAYER
 62
     7
370
     0
100
AcDbLine
 10
554.6989308825634
 20
577.9114310009846
 30
0.0
 11
554.7496216930549
 21
578.0625038827817
 31
0.0
  0
LINE
  5
4D
330
1F
100
AcDbEntity
  8
_DEFAULT_CAD_LAYER
 62
     7
370
     0
100
AcDbLine
 10
555.3072206259561
 20
579.7243056346917
 30
0.0
 11
555.318629327277
 21
579.7583067755178
 31
0.0
  0
LINE
  5
4E
330
1F
100
AcDbEntity
  8
_DEFAULT_CAD_LAYER
 62
     7
370
     0
100
AcDbLine
 10
554.9079780555508
 20
577.8706036847836
 30
0.0
 11
554.9079780555508
 21
577.8706036847836
 31
0.0
  0
LINE
  5
4F
330
1F
100
AcDbEntity
  8
_DEFAULT_CAD_LAYER
 62
     7
370
     0
100
AcDbLine
 10
555.172604637881
 20
578.0736588031423
 30
0.0
 11
555.172604637881
 21
578.0736588031423
 31
0.0
  0
LINE
  5
50
330
1F
100
AcDbEntity
  8
_DEFAULT_CAD_LAYER
 62
     7
370
     0
100
AcDbLine
 10
555.4445368620547
 20
578.282319737652
 30
0.0
 11
555.4445368620547
 21
578.282319737652
 31
0.0
  0
LINE
  5
51
330
1F
100
AcDbEntity
  8
_DEFAULT_CAD_LAYER
 62
     7
370
     0
100
AcDbLine
 10
554.5722966113618
 20
578.421934424985
 30
0.0
 11
554.5722966113618
 21
578.421934424985
 31
0.0
  0
LINE
  5
52
330
1F
100
AcDbEntity
  8
_DEFAULT_CAD_LAYER
 62
     7
370
     0
100
AcDbLine
 10
555.0174715036605
 20
578.7635291342164
 30
0.0
 11
555.0174715036605
 21
578.7635291342164
 31
0.0
  0
LINE
  5
53
330
1F
100
AcDbEntity
  8
_DEFAULT_CAD_LAYER
 62
     7
370
     0
100
AcDbLine
 10
555.4749365003479
 20
579.1145543722301
 30
0.0
 11
555.4749365003479
 21
579.1145543722301
 31
0.0
  0
LINE
  5
54
330
1F
100
AcDbEntity
  8
_DEFAULT_CAD_LAYER
 62
     7
370
     0
100
AcDbLine
 10
554.5722966113618
 20
579.2308425966761
 30
0.0
 11
554.5722966113618
 21
579.2308425966761
 31
0.0
  0
LINE
  5
55
330
1F
100
AcDbEntity
  8
_DEFAULT_CAD_LAYER
 62
     7
370
     0
100
AcDbLine
 10
554.9337581952957
 20
579.5082018251462
 30
0.0
 11
554.9337581952957
 21
579.5082018251462
 31
0.0
  0
LINE
  5
56
330
1F
100
AcDbEntity
  8
_DEFAULT_CAD_LAYER
 62
     7
370
     0
100
AcDbLine
 10
555.3051987800129
 20
579.7932182102305
 30
0.0
 11
555.3051987800129
 21
579.7932182102305
 31
0.0
  0
LINE
  5
57
330
1F
100
AcDbEntity
  8
_DEFAULT_CAD_LAYER
 62
     7
370
     0
100
AcDbLine
 10
554.5761689397381
 20
580.0427221104304
 30
0.0
 11
554.5761689397381
 21
580.0427221104304
 31
0.0
  0
LINE
  5
58
330
1F
100
AcDbEntity
  8
_DEFAULT_CAD_LAYER
 62
     7
370
     0
100
AcDbLine
 10
554.81722387628
 20
580.2276900688275
 30
0.0
 11
554.81722387628
 21
580.2276900688275
 31
0.0
  0
LINE
  5
59
330
1F
100
AcDbEntity
  8
_DEFAULT_CAD_LAYER
 62
     7
370
     0
100
AcDbLine
 10
555.0649337037079
 20
580.4177645046038
 30
0.0
 11
555.0649337037079
 21
580.4177645046038
 31
0.0
  0
LINE
  5
5A
330
1F
100
AcDbEntity
  8
_DEFAULT_CAD_LAYER
 62
     7
370
     0
100
AcDbLine
 10
554.5836427288369
 20
580.8573651222115
 30
0.0
 11
554.5836427288369
 21
580.8573651222115
 31
0.0
  0
LINE
  5
5B
330
1F
100
AcDbEntity
  8
_DEFAULT_CAD_LAYER
 62
     7
370
     0
100
AcDbLine
 10
554.7025148058906
 20
580.9485788750491
 30
0.0
 11
554.7025148058906
 21
580.9485788750491
 31
0.0
  0
LINE
  5
5C
330
1F
100
AcDbEntity
  8
_DEFAULT_CAD_LAYER
 62
     7
370
     0
100
AcDbLine
 10
554.8246686274028
 20
581.0423107989772
 30
0.0
 11
554.8246686274028
 21
581.0423107989772
 31
0.0
  0
LINE
  5
5D
330
1F
100
AcDbEntity
  8
_DEFAULT_CAD_LAYER
 62
     7
370
     0
100
AcDbLine
 10
554.5722966113618
 20
578.4988480273776
 30
0.0
 11
554.5722966113618
 21
578.4988480273776
 31
0.0
  0
LINE
  5
5E
330
1F
100
AcDbEntity
  8
_DEFAULT_CAD_LAYER
 62
     7
370
     0
100
AcDbLine
 10
554.7058728113258
 20
578.5164336677211
 30
0.0
 11
554.7058728113258
 21
578.5164336677211
 31
0.0
  0
LINE
  5
5F
330
1F
100
AcDbEntity
  8
_DEFAULT_CAD_LAYER
 62
     7
370
     0
100
AcDbLine
 10
554.9286163699044
 20
578.5457584135295
 30
0.0
 11
554.9286163699044
 21
578.5457584135295
 31
0.0
  0
LINE
  5
60
330
1F
100
AcDbEntity
  8
_DEFAULT_CAD_LAYER
 62
     7
370
     0
100
AcDbLine
 10
555.5544659386467
 20
578.6281530723683
 30
0.0
 11
555.5544659386467
 21
578.6281530723683
 31
0.0
  0
LINE
  5
61
330
1F
100
AcDbEntity
  8
_DEFAULT_CAD_LAYER
 62
     7
370
     0
100
AcDbLine
 10
555.6254480009388
 20
578.6374980381529
 30
0.0
 11
555.6254480009388
 21
578.6374980381529
 31
0.0
  0
LINE
  5
62
330
1F
100
AcDbEntity
  8
_DEFAULT_CAD_LAYER
 62
     7
370
     0
100
AcDbLine
 10
555.7438133770648
 20
578.6530811355478
 30
0.0
 11
555.7438133770648
 21
578.6530811355478
 31
0.0
  0
LINE
  5
63
330
1F
100
AcDbEntity
  8
_DEFAULT_CAD_LAYER
 62
     7
370
     0
100
AcDbLine
 10
554.5722966113618
 20
579.3982929029748
 30
0.0
 11
554.5722966113618
 21
579.3982929029748
 31
0.0
  0
LINE
  5
64
330
1F
100
AcDbEntity
  8
_DEFAULT_CAD_LAYER
 62
     7
370
     0
100
AcDbLine
 10
554.8880098190974
 20
579.4398573352945
 30
0.0
 11
554.8880098190974
 21
579.4398573352945
 31
0.0
  0
LINE
  5
65
330
1F
100
AcDbEntity
  8
_DEFAULT_CAD_LAYER
 62
     7
370
     0
100
AcDbLine
 10
555.4144739901121
 20
579.5091676582989
 30
0.0
 11
555.4144739901121
 21
579.5091676582989
 31
0.0
  0
LINE
  5
66
330
1F
100
AcDbEntity
  8
_DEFAULT_CAD_LAYER
 62
     7
370
     0
100
AcDbLine
 10
554.5785160449868
 20
580.2985565825467
 30
0.0
 11
554.5785160449868
 21
580.2985565825467
 31
0.0
  0
LINE
  5
67
330
1F
100
AcDbEntity
  8
_DEFAULT_CAD_LAYER
 62
     7
370
     0
100
AcDbLine
 10
554.768435857766
 20
580.3235600002388
 30
0.0
 11
554.768435857766
 21
580.3235600002388
 31
0.0
  0
LINE
  5
68
330
1F
100
AcDbEntity
  8
_DEFAULT_CAD_LAYER
 62
     7
370
     0
100
AcDbLine
 10
555.0851346031594
 20
580.36525418105
 30
0.0
 11
555.0851346031594
 21
580.36525418105
 31
0.0
  0
LINE
  5
69
330
1F
100
AcDbEntity
  8
_DEFAULT_CAD_LAYER
 62
     7
370
     0
100
AcDbLine
 10
554.5867778115721
 20
581.1990891403484
 30
0.0
 11
554.5867778115721
 21
581.1990891403484
 31
0.0
  0
LINE
  5
6A
330
1F
100
AcDbEntity
  8
_DEFAULT_CAD_LAYER
 62
     7
370
     0
100
AcDbLine
 10
554.6501386050661
 20
581.2074307470598
 30
0.0
 11
554.6501386050661
 21
581.2074307470598
 31
0.0
  0
LINE
  5
6B
330
1F
100
AcDbEntity
  8
_DEFAULT_CAD_LAYER
 62
     7
370
     0
100
AcDbLine
 10
554.7557952162067
 20
581.221340703801
 30
0.0
 11
554.7557952162067
 21
581.221340703801
 31
0.0
  0
LINE
  5
6C
330
1F
100
AcDbEntity
  8
_DEFAULT_CAD_LAYER
 62
     7
370
     0
100
AcDbLine
 10
554.5722966113618
 20
578.286607150706
 30
0.0
 11
554.5722966113618
 21
578.286607150706
 31
0.0
  0
LINE
  5
6D
330
1F
100
AcDbEntity
  8
_DEFAULT_CAD_LAYER
 62
     7
370
     0
100
AcDbLine
 10
554.7239936142548
 20
578.1899655015093
 30
0.0
 11
554.7239936142548
 21
578.1899655015093
 31
0.0
  0
LINE
  5
6E
330
1F
100
AcDbEntity
  8
_DEFAULT_CAD_LAYER
 62
     7
370
     0
100
AcDbLine
 10
555.1972882632812
 20
577.8884435560153
 30
0.0
 11
555.1972882632812
 21
577.8884435560153
 31
0.0
  0
LINE
  5
6F
330
1F
100
AcDbEntity
  8
_DEFAULT_CAD_LAYER
 62
     7
370
     0
100
AcDbLine
 10
554.5722966113618
 20
579.0804259679633
 30
0.0
 11
554.5722966113618
 21
579.0804259679633
 31
0.0
  0
LINE
  5
70
330
1F
100
AcDbEntity
  8
_DEFAULT_CAD_LAYER
 62
     7
370
     0
100
AcDbLine
 10
554.574694605795
 20
579.0788982770243
 30
0.0
 11
554.574694605795
 21
579.0788982770243
 31
0.0
  0
LINE
  5
71
330
1F
100
AcDbEntity
  8
_DEFAULT_CAD_LAYER
 62
     7
370
     0
100
AcDbLine
 10
554.5821763484265
 20
579.0741318812946
 30
0.0
 11
554.5821763484265
 21
579.0741318812946
 31
0.0
  0
LINE
  5
72
330
1F
100
AcDbEntity
  8
_DEFAULT_CAD_LAYER
 62
     7
370
     0
100
AcDbLine
 10
554.5722966113618
 20
579.2499329350369
 30
0.0
 11
554.5722966113618
 21
579.2499329350369
 31
0.0
  0
LINE
  5
73
330
1F
100
AcDbEntity
  8
_DEFAULT_CAD_LAYER
 62
     7
370
     0
100
AcDbLine
 10
555.0415912626613
 20
578.8199036162516
 30
0.0
 11
555.0415912626613
 21
578.8199036162516
 31
0.0
  0
LINE
  5
74
330
1F
100
AcDbEntity
  8
_DEFAULT_CAD_LAYER
 62
     7
370
     0
100
AcDbLine
 10
555.7895747376555
 20
578.1345030404646
 30
0.0
 11
555.7895747376555
 21
578.1345030404646
 31
0.0
  0
LINE
  5
75
330
1F
100
AcDbEntity
  8
_DEFAULT_CAD_LAYER
 62
     7
370
     0
100
AcDbLine
 10
554.5833553523926
 20
580.8260410897758
 30
0.0
 11
554.5833553523926
 21
580.8260410897758
 31
0.0
  0
LINE
  5
76
330
1F
100
AcDbEntity
  8
_DEFAULT_CAD_LAYER
 62
     7
370
     0
100
AcDbLine
 10
554.7765782553149
 20
580.6489849202941
 30
0.0
 11
554.7765782553149
 21
580.6489849202941
 31
0.0
  0
LINE
  5
77
330
1F
100
AcDbEntity
  8
_DEFAULT_CAD_LAYER
 62
     7
370
     0
100
AcDbLine
 10
555.0845458359726
 20
580.366784625551
 30
0.0
 11
555.0845458359726
 21
580.366784625551
 31
0.0
  0
LINE
  5
78
330
1F
100
AcDbEntity
  8
_DEFAULT_CAD_LAYER
 62
     7
370
     0
100
AcDbLine
 10
555.9390595095282
 20
582.2567871720883
 30
0.0
 11
556.045527115418
 21
582.3836703239094
 31
0.0
  0
LINE
  5
79
330
1F
100
AcDbEntity
  8
_DEFAULT_CAD_LAYER
 62
     7
370
     0
100
AcDbLine
 10
555.5921811747651
 20
584.1372675066092
 30
0.0
 11
555.7127038515704
 21
584.2809008397032
 31
0.0
  0
LINE
  5
7A
330
1F
100
AcDbEntity
  8
_DEFAULT_CAD_LAYER
 62
     7
370
     0
100
AcDbLine
 10
555.2453028401487
 20
586.0177478410073
 30
0.0
 11
555.365825516965
 21
586.1613811740921
 31
0.0
  0
LINE
  5
7B
330
1F
100
AcDbEntity
  8
_DEFAULT_CAD_LAYER
 62
     7
370
     0
100
AcDbLine
 10
555.9390597634164
 20
582.2567872877094
 30
0.0
 11
556.045506231826
 21
582.2474744284563
 31
0.0
  0
LINE
  5
7C
330
1F
100
AcDbEntity
  8
_DEFAULT_CAD_LAYER
 62
     7
370
     0
100
AcDbLine
 10
555.5921814293929
 20
584.1372676220611
 30
0.0
 11
555.7416106341088
 21
584.1241942606738
 31
0.0
  0
LINE
  5
7D
330
1F
100
AcDbEntity
  8
_DEFAULT_CAD_LAYER
 62
     7
370
     0
100
AcDbLine
 10
555.2453030953332
 20
586.017747956
 30
0.0
 11
555.394732300044
 21
586.0046745945548
 31
0.0
  0
LINE
  5
7E
330
1F
100
AcDbEntity
  8
_DEFAULT_CAD_LAYER
 62
     7
370
     0
100
AcDbLine
 10
555.7420614381467
 20
584.1237557632463
 30
0.0
 11
555.7131550335215
 21
584.2804624754649
 31
0.0
  0
LINE
  5
7F
330
1F
100
AcDbEntity
  8
_DEFAULT_CAD_LAYER
 62
     7
370
     0
100
AcDbLine
 10
555.3951845726676
 20
586.0042363639573
 30
0.0
 11
555.3662781680424
 21
586.160943076176
 31
0.0
  0
LINE
  5
80
330
1F
100
AcDbEntity
  8
_DEFAULT_CAD_LAYER
 62
     7
370
     0
100
AcDbLine
 10
555.7924096203203
 20
582.9496614579111
 30
0.0
 11
555.9871308589176
 21
583.15260283304
 31
0.0
  0
LINE
  5
81
330
1F
100
AcDbEntity
  8
_DEFAULT_CAD_LAYER
 62
     7
370
     0
100
AcDbLine
 10
555.4609618615191
 20
585.7987554956667
 30
0.0
 11
555.655683100085
 21
586.0016968708256
 31
0.0
  0
LINE
  5
82
330
1F
100
AcDbEntity
  8
_DEFAULT_CAD_LAYER
 62
     7
370
     0
100
AcDbLine
 10
556.0152061785546
 20
582.914743797922
 30
0.0
 11
555.9875857173867
 21
583.1521683226588
 31
0.0
  0
LINE
  5
83
330
1F
100
AcDbEntity
  8
_DEFAULT_CAD_LAYER
 62
     7
370
     0
100
AcDbLine
 10
555.6837606930703
 20
585.7638376775743
 30
0.0
 11
555.6561402319022
 21
586.0012622023108
 31
0.0
  0
LINE
  5
84
330
1F
100
AcDbEntity
  8
_DEFAULT_CAD_LAYER
 62
     7
370
     0
100
AcDbLine
 10
555.7924095955916
 20
582.9496615876835
 30
0.0
 11
556.0147514807265
 21
582.9151784597125
 31
0.0
  0
LINE
  5
85
330
1F
100
AcDbEntity
  8
_DEFAULT_CAD_LAYER
 62
     7
370
     0
100
AcDbLine
 10
555.4609618367517
 20
585.7987556252923
 30
0.0
 11
555.6833037218928
 21
585.7642724973616
 31
0.0
  0
LINE
  5
86
330
1F
100
AcDbEntity
  8
_DEFAULT_CAD_LAYER
 62
     7
370
     0
100
AcDbLine
 10
555.2842374150289
 20
579.8477052918619
 30
0.0
 11
555.3574627776908
 21
579.8758138750209
 31
0.0
  0
LINE
  5
87
330
1F
100
AcDbEntity
  8
_DEFAULT_CAD_LAYER
 62
     7
370
     0
100
AcDbLine
 10
555.7907047769738
 20
581.6214949978071
 30
0.0
 11
555.9657511069312
 21
581.6886889883752
 31
0.0
  0
LINE
  5
88
330
1F
100
AcDbEntity
  8
_DEFAULT_CAD_LAYER
 62
     7
370
     0
100
AcDbLine
 10
554.9067254760909
 20
584.4409173373742
 30
0.0
 11
555.0817718060736
 21
584.5081113278763
 31
0.0
  0
LINE
  5
89
330
1F
100
AcDbEntity
  8
_DEFAULT_CAD_LAYER
 62
     7
370
     0
100
AcDbLine
 10
555.5150138053697
 20
586.2537924506286
 30
0.0
 11
555.6900601353345
 21
586.3209864411771
 31
0.0
  0
LINE
  5
8A
330
1F
100
AcDbEntity
  8
_DEFAULT_CAD_LAYER
 62
     7
370
     0
100
AcDbLine
 10
555.7907050438415
 20
581.6214948548219
 30
0.0
 11
555.9150606797375
 21
581.53761591932
 31
0.0
  0
LINE
  5
8B
330
1F
100
AcDbEntity
  8
_DEFAULT_CAD_LAYER
 62
     7
370
     0
100
AcDbLine
 10
554.9067257429308
 20
584.440917193515
 30
0.0
 11
555.0310813788167
 21
584.3570382579984
 31
0.0
  0
LINE
  5
8C
330
1F
100
AcDbEntity
  8
_DEFAULT_CAD_LAYER
 62
     7
370
     0
100
AcDbLine
 10
555.5150140726739
 20
586.253792306042
 30
0.0
 11
555.6393697085498
 21
586.1699133705106
 31
0.0
  0
LINE
  5
8D
330
1F
100
AcDbEntity
  8
_DEFAULT_CAD_LAYER
 62
     7
370
     0
100
AcDbLine
 10
555.3186293272801
 20
579.7583067755097
 30
0.0
 11
555.3579114364575
 21
579.8753785164855
 31
0.0
  0
LINE
  5
8E
330
1F
100
AcDbEntity
  8
_DEFAULT_CAD_LAYER
 62
     7
370
     0
100
AcDbLine
 10
555.9155103694263
 20
581.5371802683728
 30
0.0
 11
555.9662011799239
 21
581.6882531501677
 31
0.0
  0
LINE
  5
8F
330
1F
100
AcDbEntity
  8
_DEFAULT_CAD_LAYER
 62
     7
370
     0
100
AcDbLine
 10
555.0315332846853
 20
584.3566032940364
 30
0.0
 11
555.0822240951767
 21
584.5076761758335
 31
0.0
  0
LINE
  5
90
330
1F
100
AcDbEntity
  8
_DEFAULT_CAD_LAYER
 62
     7
370
     0
100
AcDbLine
 10
555.6398230280779
 20
586.1694779277434
 30
0.0
 11
555.6905138385692
 21
586.3205508095405
 31
0.0
  0
LINE
  5
91
330
1F
100
AcDbEntity
  8
_DEFAULT_CAD_LAYER
 62
     7
370
     0
100
AcDbLine
 10
555.3051987800125
 20
579.7932182102317
 30
0.0
 11
555.3051987800125
 21
579.7932182102317
 31
0.0
  0
LINE
  5
92
330
1F
100
AcDbEntity
  8
_DEFAULT_CAD_LAYER
 62
     7
370
     0
100
AcDbLine
 10
555.4039049508415
 20
579.8689581189722
 30
0.0
 11
555.4039049508415
 21
579.8689581189722
 31
0.0
  0
LINE
  5
93
330
1F
100
AcDbEntity
  8
_DEFAULT_CAD_LAYER
 62
     7
370
     0
100
AcDbLine
 10
555.5053361386565
 20
579.9467890067883
 30
0.0
 11
555.5053361386565
 21
579.9467890067883
 31
0.0
  0
LINE
  5
94
330
1F
100
AcDbEntity
  8
_DEFAULT_CAD_LAYER
 62
     7
370
     0
100
AcDbLine
 10
555.0649337037074
 20
580.417764504605
 30
0.0
 11
555.0649337037074
 21
580.417764504605
 31
0.0
  0
LINE
  5
95
330
1F
100
AcDbEntity
  8
_DEFAULT_CAD_LAYER
 62
     7
370
     0
100
AcDbLine
 10
555.297129582513
 20
580.5959346688512
 30
0.0
 11
555.297129582513
 21
580.5959346688512
 31
0.0
  0
LINE
  5
96
330
1F
100
AcDbEntity
  8
_DEFAULT_CAD_LAYER
 62
     7
370
     0
100
AcDbLine
 10
555.535735776991
 20
580.7790236413127
 30
0.0
 11
555.535735776991
 21
580.7790236413127
 31
0.0
  0
LINE
  5
97
330
1F
100
AcDbEntity
  8
_DEFAULT_CAD_LAYER
 62
     7
370
     0
100
AcDbLine
 10
554.8246686274024
 20
581.0423107989783
 30
0.0
 11
554.8246686274024
 21
581.0423107989783
 31
0.0
  0
LINE
  5
98
330
1F
100
AcDbEntity
  8
_DEFAULT_CAD_LAYER
 62
     7
370
     0
100
AcDbLine
 10
555.1903542140822
 20
581.3229112188635
 30
0.0
 11
555.1903542140822
 21
581.3229112188635
 31
0.0
  0
LINE
  5
99
330
1F
100
AcDbEntity
  8
_DEFAULT_CAD_LAYER
 62
     7
370
     0
100
AcDbLine
 10
555.5661354151182
 20
581.6112582761076
 30
0.0
 11
555.5661354151182
 21
581.6112582761076
 31
0.0
  0
LINE
  5
9A
330
1F
100
AcDbEntity
  8
_DEFAULT_CAD_LAYER
 62
     7
370
     0
100
AcDbLine
 10
554.5909140010706
 20
581.6718527373201
 30
0.0
 11
554.5909140010706
 21
581.6718527373201
 31
0.0
  0
LINE
  5
9B
330
1F
100
AcDbEntity
  8
_DEFAULT_CAD_LAYER
 62
     7
370
     0
100
AcDbLine
 10
555.0868783930094
 20
582.0524196004156
 30
0.0
 11
555.0868783930094
 21
582.0524196004156
 31
0.0
  0
LINE
  5
9C
330
1F
100
AcDbEntity
  8
_DEFAULT_CAD_LAYER
 62
     7
370
     0
100
AcDbLine
 10
555.5965350534375
 20
582.4434929106518
 30
0.0
 11
555.5965350534375
 21
582.4434929106518
 31
0.0
  0
LINE
  5
9D
330
1F
100
AcDbEntity
  8
_DEFAULT_CAD_LAYER
 62
     7
370
     0
100
AcDbLine
 10
554.5909140010706
 20
582.4807609090112
 30
0.0
 11
554.5909140010706
 21
582.4807609090112
 31
0.0
  0
LINE
  5
9E
330
1F
100
AcDbEntity
  8
_DEFAULT_CAD_LAYER
 62
     7
370
     0
100
AcDbLine
 10
555.1018712554854
 20
582.8728322000709
 30
0.0
 11
555.1018712554854
 21
582.8728322000709
 31
0.0
  0
LINE
  5
9F
330
1F
100
AcDbEntity
  8
_DEFAULT_CAD_LAYER
 62
     7
370
     0
100
AcDbLine
 10
555.6269346917705
 20
583.2757275451781
 30
0.0
 11
555.6269346917705
 21
583.2757275451781
 31
0.0
  0
LINE
  5
A0
330
1F
100
AcDbEntity
  8
_DEFAULT_CAD_LAYER
 62
     7
370
     0
100
AcDbLine
 10
554.5909140010706
 20
583.2896690807023
 30
0.0
 11
554.5909140010706
 21
583.2896690807023
 31
0.0
  0
LINE
  5
A1
330
1F
100
AcDbEntity
  8
_DEFAULT_CAD_LAYER
 62
     7
370
     0
100
AcDbLine
 10
555.1168641179626
 20
583.6932447997245
 30
0.0
 11
555.1168641179626
 21
583.6932447997245
 31
0.0
  0
LINE
  5
A2
330
1F
100
AcDbEntity
  8
_DEFAULT_CAD_LAYER
 62
     7
370
     0
100
AcDbLine
 10
555.6573343301061
 20
584.1079621797013
 30
0.0
 11
555.6573343301061
 21
584.1079621797013
 31
0.0
  0
LINE
  5
A3
330
1F
100
AcDbEntity
  8
_DEFAULT_CAD_LAYER
 62
     7
370
     0
100
AcDbLine
 10
554.5909140010706
 20
584.0985772523934
 30
0.0
 11
554.5909140010706
 21
584.0985772523934
 31
0.0
  0
LINE
  5
A4
330
1F
100
AcDbEntity
  8
_DEFAULT_CAD_LAYER
 62
     7
370
     0
100
AcDbLine
 10
555.131856980441
 20
584.5136573993765
 30
0.0
 11
555.131856980441
 21
584.5136573993765
 31
0.0
  0
LINE
  5
A5
330
1F
100
AcDbEntity
  8
_DEFAULT_CAD_LAYER
 62
     7
370
     0
100
AcDbLine
 10
555.6877339684441
 20
584.9401968142212
 30
0.0
 11
555.6877339684441
 21
584.9401968142212
 31
0.0
  0
LINE
  5
A6
330
1F
100
AcDbEntity
  8
_DEFAULT_CAD_LAYER
 62
     7
370
     0
100
AcDbLine
 10
554.5909140010706
 20
584.9074854240844
 30
0.0
 11
554.5909140010706
 21
584.9074854240844
 31
0.0
  0
LINE
  5
A7
330
1F
100
AcDbEntity
  8
_DEFAULT_CAD_LAYER
 62
     7
370
     0
100
AcDbLine
 10
555.1468498429206
 20
585.3340699990268
 30
0.0
 11
555.1468498429206
 21
585.3340699990268
 31
0.0
  0
LINE
  5
A8
330
1F
100
AcDbEntity
  8
_DEFAULT_CAD_LAYER
 62
     7
370
     0
100
AcDbLine
 10
555.7181336067848
 20
585.7724314487377
 30
0.0
 11
555.7181336067848
 21
585.7724314487377
 31
0.0
  0
LINE
  5
A9
330
1F
100
AcDbEntity
  8
_DEFAULT_CAD_LAYER
 62
     7
370
     0
100
AcDbLine
 10
554.5909140010706
 20
585.7163935957756
 30
0.0
 11
554.5909140010706
 21
585.7163935957756
 31
0.0
  0
LINE
  5
AA
330
1F
100
AcDbEntity
  8
_DEFAULT_CAD_LAYER
 62
     7
370
     0
100
AcDbLine
 10
555.1618427054013
 20
586.1544825986758
 30
0.0
 11
555.1618427054013
 21
586.1544825986758
 31
0.0
  0
LINE
  5
AB
330
1F
100
AcDbEntity
  8
_DEFAULT_CAD_LAYER
 62
     7
370
     0
100
AcDbLine
 10
555.7485332451278
 20
586.6046660832512
 30
0.0
 11
555.7485332451278
 21
586.6046660832512
 31
0.0
  0
LINE
  5
AC
330
1F
100
AcDbEntity
  8
_DEFAULT_CAD_LAYER
 62
     7
370
     0
100
AcDbLine
 10
554.5909140010706
 20
586.5253017674667
 30
0.0
 11
554.5909140010706
 21
586.5253017674667
 31
0.0
  0
LINE
  5
AD
330
1F
100
AcDbEntity
  8
_DEFAULT_CAD_LAYER
 62
     7
370
     0
100
AcDbLine
 10
554.8198058077851
 20
586.700936628086
 30
0.0
 11
554.8198058077851
 21
586.700936628086
 31
0.0
  0
LINE
  5
AE
330
1F
100
AcDbEntity
  8
_DEFAULT_CAD_LAYER
 62
     7
370
     0
100
AcDbLine
 10
555.055016713458
 20
586.8814203038758
 30
0.0
 11
555.055016713458
 21
586.8814203038758
 31
0.0
  0
LINE
  5
AF
330
1F
100
AcDbEntity
  8
_DEFAULT_CAD_LAYER
 62
     7
370
     0
100
AcDbLine
 10
555.7438133770652
 20
578.653081135547
 30
0.0
 11
555.7438133770652
 21
578.653081135547
 31
0.0
  0
LINE
  5
B0
330
1F
100
AcDbEntity
  8
_DEFAULT_CAD_LAYER
 62
     7
370
     0
100
AcDbLine
 10
555.8567068559304
 20
578.667943844021
 30
0.0
 11
555.8567068559304
 21
578.667943844021
 31
0.0
  0
LINE
  5
B1
330
1F
100
AcDbEntity
  8
_DEFAULT_CAD_LAYER
 62
     7
370
     0
100
AcDbLine
 10
556.044961164928
 20
578.6927279940156
 30
0.0
 11
556.044961164928
 21
578.6927279940156
 31
0.0
  0
LINE
  5
B2
330
1F
100
AcDbEntity
  8
_DEFAULT_CAD_LAYER
 62
     7
370
     0
100
AcDbLine
 10
555.4144739901124
 20
579.5091676582983
 30
0.0
 11
555.4144739901124
 21
579.5091676582983
 31
0.0
  0
LINE
  5
B3
330
1F
100
AcDbEntity
  8
_DEFAULT_CAD_LAYER
 62
     7
370
     0
100
AcDbLine
 10
555.4788839973164
 20
579.5176473965929
 30
0.0
 11
555.4788839973164
 21
579.5176473965929
 31
0.0
  0
LINE
  5
B4
330
1F
100
AcDbEntity
  8
_DEFAULT_CAD_LAYER
 62
     7
370
     0
100
AcDbLine
 10
555.5862902135179
 20
579.5317876931732
 30
0.0
 11
555.5862902135179
 21
579.5317876931732
 31
0.0
  0
LINE
  5
B5
330
1F
100
AcDbEntity
  8
_DEFAULT_CAD_LAYER
 62
     7
370
     0
100
AcDbLine
 10
555.0851346031596
 20
580.3652541810494
 30
0.0
 11
555.0851346031596
 21
580.3652541810494
 31
0.0
  0
LINE
  5
B6
330
1F
100
AcDbEntity
  8
_DEFAULT_CAD_LAYER
 62
     7
370
     0
100
AcDbLine
 10
555.4450552280945
 20
580.4126386303415
 30
0.0
 11
555.4450552280945
 21
580.4126386303415
 31
0.0
  0
LINE
  5
B7
330
1F
100
AcDbEntity
  8
_DEFAULT_CAD_LAYER
 62
     7
370
     0
100
AcDbLine
 10
556.0452370031823
 20
580.4916540601818
 30
0.0
 11
556.0452370031823
 21
580.4916540601818
 31
0.0
  0
LINE
  5
B8
330
1F
100
AcDbEntity
  8
_DEFAULT_CAD_LAYER
 62
     7
370
     0
100
AcDbLine
 10
554.7557952162069
 20
581.2213407038005
 30
0.0
 11
554.7557952162069
 21
581.2213407038005
 31
0.0
  0
LINE
  5
B9
330
1F
100
AcDbEntity
  8
_DEFAULT_CAD_LAYER
 62
     7
370
     0
100
AcDbLine
 10
555.2392294141766
 20
581.2849860233625
 30
0.0
 11
555.2392294141766
 21
581.2849860233625
 31
0.0
  0
LINE
  5
BA
330
1F
100
AcDbEntity
  8
_DEFAULT_CAD_LAYER
 62
     7
370
     0
100
AcDbLine
 10
556.0453749223093
 20
581.3911170928941
 30
0.0
 11
556.0453749223093
 21
581.3911170928941
 31
0.0
  0
LINE
  5
BB
330
1F
100
AcDbEntity
  8
_DEFAULT_CAD_LAYER
 62
     7
370
     0
100
AcDbLine
 10
555.0336059599892
 20
582.1573600575714
 30
0.0
 11
555.0336059599892
 21
582.1573600575714
 31
0.0
  0
LINE
  5
BC
330
1F
100
AcDbEntity
  8
_DEFAULT_CAD_LAYER
 62
     7
370
     0
100
AcDbLine
 10
555.4129469106397
 20
582.2073012410742
 30
0.0
 11
555.4129469106397
 21
582.2073012410742
 31
0.0
  0
LINE
  5
BD
330
1F
100
AcDbEntity
  8
_DEFAULT_CAD_LAYER
 62
     7
370
     0
100
AcDbLine
 10
556.0455128414363
 20
582.2905801256064
 30
0.0
 11
556.0455128414363
 21
582.2905801256064
 31
0.0
  0
LINE
  5
BE
330
1F
100
AcDbEntity
  8
_DEFAULT_CAD_LAYER
 62
     7
370
     0
100
AcDbLine
 10
554.5909140010706
 20
582.9985234312172
 30
0.0
 11
554.5909140010706
 21
582.9985234312172
 31
0.0
  0
LINE
  5
BF
330
1F
100
AcDbEntity
  8
_DEFAULT_CAD_LAYER
 62
     7
370
     0
100
AcDbLine
 10
554.7687993801654
 20
583.0219424856745
 30
0.0
 11
554.7687993801654
 21
583.0219424856745
 31
0.0
  0
LINE
  5
C0
330
1F
100
AcDbEntity
  8
_DEFAULT_CAD_LAYER
 62
     7
370
     0
100
AcDbLine
 10
555.0654302348341
 20
583.0609946785783
 30
0.0
 11
555.0654302348341
 21
583.0609946785783
 31
0.0
  0
LINE
  5
C1
330
1F
100
AcDbEntity
  8
_DEFAULT_CAD_LAYER
 62
     7
370
     0
100
AcDbLine
 10
555.6912798035694
 20
583.1433893374693
 30
0.0
 11
555.6912798035694
 21
583.1433893374693
 31
0.0
  0
LINE
  5
C2
330
1F
100
AcDbEntity
  8
_DEFAULT_CAD_LAYER
 62
     7
370
     0
100
AcDbLine
 10
555.8241254420108
 20
583.160878797575
 30
0.0
 11
555.8241254420108
 21
583.160878797575
 31
0.0
  0
LINE
  5
C3
330
1F
100
AcDbEntity
  8
_DEFAULT_CAD_LAYER
 62
     7
370
     0
100
AcDbLine
 10
556.0456507605635
 20
583.1900431590601
 30
0.0
 11
556.0456507605635
 21
583.1900431590601
 31
0.0
  0
LINE
  5
C4
330
1F
100
AcDbEntity
  8
_DEFAULT_CAD_LAYER
 62
     7
370
     0
100
AcDbLine
 10
554.5909140010706
 20
583.8979683068145
 30
0.0
 11
554.5909140010706
 21
583.8979683068145
 31
0.0
  0
LINE
  5
C5
330
1F
100
AcDbEntity
  8
_DEFAULT_CAD_LAYER
 62
     7
370
     0
100
AcDbLine
 10
555.0153463951461
 20
583.9538458915051
 30
0.0
 11
555.0153463951461
 21
583.9538458915051
 31
0.0
  0
LINE
  5
C6
330
1F
100
AcDbEntity
  8
_DEFAULT_CAD_LAYER
 62
     7
370
     0
100
AcDbLine
 10
555.7231040784607
 20
584.0470239581228
 30
0.0
 11
555.7231040784607
 21
584.0470239581228
 31
0.0
  0
LINE
  5
C7
330
1F
100
AcDbEntity
  8
_DEFAULT_CAD_LAYER
 62
     7
370
     0
100
AcDbLine
 10
554.5909140010706
 20
584.7974131824119
 30
0.0
 11
554.5909140010706
 21
584.7974131824119
 31
0.0
  0
LINE
  5
C8
330
1F
100
AcDbEntity
  8
_DEFAULT_CAD_LAYER
 62
     7
370
     0
100
AcDbLine
 10
555.1363652398727
 20
584.8692232004247
 30
0.0
 11
555.1363652398727
 21
584.8692232004247
 31
0.0
  0
LINE
  5
C9
330
1F
100
AcDbEntity
  8
_DEFAULT_CAD_LAYER
 62
     7
370
     0
100
AcDbLine
 10
556.0459265988177
 20
584.9889692252262
 30
0.0
 11
556.0459265988177
 21
584.9889692252262
 31
0.0
  0
LINE
  5
CA
330
1F
100
AcDbEntity
  8
_DEFAULT_CAD_LAYER
 62
     7
370
     0
100
AcDbLine
 10
554.5909140010706
 20
585.6968580580093
 30
0.0
 11
554.5909140010706
 21
585.6968580580093
 31
0.0
  0
LINE
  5
CB
330
1F
100
AcDbEntity
  8
_DEFAULT_CAD_LAYER
 62
     7
370
     0
100
AcDbLine
 10
555.136416942627
 20
585.768674882713
 30
0.0
 11
555.136416942627
 21
585.768674882713
 31
0.0
  0
LINE
  5
CC
330
1F
100
AcDbEntity
  8
_DEFAULT_CAD_LAYER
 62
     7
370
     0
100
AcDbLine
 10
556.0460645179447
 20
585.8884322579386
 30
0.0
 11
556.0460645179447
 21
585.8884322579386
 31
0.0
  0
LINE
  5
CD
330
1F
100
AcDbEntity
  8
_DEFAULT_CAD_LAYER
 62
     7
370
     0
100
AcDbLine
 10
555.1704198249247
 20
586.6725963225779
 30
0.0
 11
555.1704198249247
 21
586.6725963225779
 31
0.0
  0
LINE
  5
CE
330
1F
100
AcDbEntity
  8
_DEFAULT_CAD_LAYER
 62
     7
370
     0
100
AcDbLine
 10
555.4987308728543
 20
586.7158192919635
 30
0.0
 11
555.4987308728543
 21
586.7158192919635
 31
0.0
  0
LINE
  5
CF
330
1F
100
AcDbEntity
  8
_DEFAULT_CAD_LAYER
 62
     7
370
     0
100
AcDbLine
 10
556.0462024370718
 20
586.7878952906509
 30
0.0
 11
556.0462024370718
 21
586.7878952906509
 31
0.0
  0
LINE
  5
D0
330
1F
100
AcDbEntity
  8
_DEFAULT_CAD_LAYER
 62
     7
370
     0
100
AcDbLine
 10
555.5342278846854
 20
580.0552457951416
 30
0.0
 11
555.5342278846854
 21
580.0552457951416
 31
0.0
  0
LINE
  5
D1
330
1F
100
AcDbEntity
  8
_DEFAULT_CAD_LAYER
 62
     7
370
     0
100
AcDbLine
 10
555.6582308689735
 20
579.9762471815542
 30
0.0
 11
555.6582308689735
 21
579.9762471815542
 31
0.0
  0
LINE
  5
D2
330
1F
100
AcDbEntity
  8
_DEFAULT_CAD_LAYER
 62
     7
370
     0
100
AcDbLine
 10
556.0451201799524
 20
579.7297715071617
 30
0.0
 11
556.0451201799524
 21
579.7297715071617
 31
0.0
  0
LINE
  5
D3
330
1F
100
AcDbEntity
  8
_DEFAULT_CAD_LAYER
 62
     7
370
     0
100
AcDbLine
 10
554.919115969884
 20
581.240934120505
 30
0.0
 11
554.919115969884
 21
581.240934120505
 31
0.0
  0
LINE
  5
D4
330
1F
100
AcDbEntity
  8
_DEFAULT_CAD_LAYER
 62
     7
370
     0
100
AcDbLine
 10
555.1924475034654
 20
581.0668027290666
 30
0.0
 11
555.1924475034654
 21
581.0668027290666
 31
0.0
  0
LINE
  5
D5
330
1F
100
AcDbEntity
  8
_DEFAULT_CAD_LAYER
 62
     7
370
     0
100
AcDbLine
 10
556.0452418882389
 20
580.5235127877786
 30
0.0
 11
556.0452418882389
 21
580.5235127877786
 31
0.0
  0
LINE
  5
D6
330
1F
100
AcDbEntity
  8
_DEFAULT_CAD_LAYER
 62
     7
370
     0
100
AcDbLine
 10
554.5909140010706
 20
582.2438406516757
 30
0.0
 11
554.5909140010706
 21
582.2438406516757
 31
0.0
  0
LINE
  5
D7
330
1F
100
AcDbEntity
  8
_DEFAULT_CAD_LAYER
 62
     7
370
     0
100
AcDbLine
 10
554.9439357475402
 20
582.0189409955397
 30
0.0
 11
554.9439357475402
 21
582.0189409955397
 31
0.0
  0
LINE
  5
D8
330
1F
100
AcDbEntity
  8
_DEFAULT_CAD_LAYER
 62
     7
370
     0
100
AcDbLine
 10
556.0453635965255
 20
581.3172540683954
 30
0.0
 11
556.0453635965255
 21
581.3172540683954
 31
0.0
  0
LINE
  5
D9
330
1F
100
AcDbEntity
  8
_DEFAULT_CAD_LAYER
 62
     7
370
     0
100
AcDbLine
 10
554.5909140010706
 20
583.0376594689329
 30
0.0
 11
554.5909140010706
 21
583.0376594689329
 31
0.0
  0
LINE
  5
DA
330
1F
100
AcDbEntity
  8
_DEFAULT_CAD_LAYER
 62
     7
370
     0
100
AcDbLine
 10
554.8990963098229
 20
582.8413256851023
 30
0.0
 11
554.8990963098229
 21
582.8413256851023
 31
0.0
  0
LINE
  5
DB
330
1F
100
AcDbEntity
  8
_DEFAULT_CAD_LAYER
 62
     7
370
     0
100
AcDbLine
 10
555.86062511313
 20
582.2287642795507
 30
0.0
 11
555.86062511313
 21
582.2287642795507
 31
0.0
  0
LINE
  5
DC
330
1F
100
AcDbEntity
  8
_DEFAULT_CAD_LAYER
 62
     7
370
     0
100
AcDbLine
 10
554.5909140010706
 20
583.83147828619
 30
0.0
 11
554.5909140010706
 21
583.83147828619
 31
0.0
  0
LINE
  5
DD
330
1F
100
AcDbEntity
  8
_DEFAULT_CAD_LAYER
 62
     7
370
     0
100
AcDbLine
 10
554.7497973013714
 20
583.7302584606301
 30
0.0
 11
554.7497973013714
 21
583.7302584606301
 31
0.0
  0
LINE
  5
DE
330
1F
100
AcDbEntity
  8
_DEFAULT_CAD_LAYER
 62
     7
370
     0
100
AcDbLine
 10
555.2455131983096
 20
583.4144526048836
 30
0.0
 11
555.2455131983096
 21
583.4144526048836
 31
0.0
  0
LINE
  5
DF
330
1F
100
AcDbEntity
  8
_DEFAULT_CAD_LAYER
 62
     7
370
     0
100
AcDbLine
 10
554.5909140010706
 20
584.6252971034471
 30
0.0
 11
554.5909140010706
 21
584.6252971034471
 31
0.0
  0
LINE
  5
E0
330
1F
100
AcDbEntity
  8
_DEFAULT_CAD_LAYER
 62
     7
370
     0
100
AcDbLine
 10
554.6004982929114
 20
584.6191912361451
 30
0.0
 11
554.6004982929114
 21
584.6191912361451
 31
0.0
  0
LINE
  5
E1
330
1F
100
AcDbEntity
  8
_DEFAULT_CAD_LAYER
 62
     7
370
     0
100
AcDbLine
 10
554.6304012834547
 20
584.6001409301626
 30
0.0
 11
554.6304012834547
 21
584.6001409301626
 31
0.0
  0
LINE
  5
E2
330
1F
100
AcDbEntity
  8
_DEFAULT_CAD_LAYER
 62
     7
370
     0
100
AcDbLine
 10
555.5824528198702
 20
585.5812548442557
 30
0.0
 11
555.5824528198702
 21
585.5812548442557
 31
0.0
  0
LINE
  5
E3
330
1F
100
AcDbEntity
  8
_DEFAULT_CAD_LAYER
 62
     7
370
     0
100
AcDbLine
 10
555.6949575087266
 20
585.5095814528053
 30
0.0
 11
555.6949575087266
 21
585.5095814528053
 31
0.0
  0
LINE
  5
E4
330
1F
100
AcDbEntity
  8
_DEFAULT_CAD_LAYER
 62
     7
370
     0
100
AcDbLine
 10
556.0459721379582
 20
585.2859604714799
 30
0.0
 11
556.0459721379582
 21
585.2859604714799
 31
0.0
  0
LINE
  5
E5
330
1F
100
AcDbEntity
  8
_DEFAULT_CAD_LAYER
 62
     7
370
     0
100
AcDbLine
 10
554.9673409049542
 20
586.7669431694387
 30
0.0
 11
554.9673409049542
 21
586.7669431694387
 31
0.0
  0
LINE
  5
E6
330
1F
100
AcDbEntity
  8
_DEFAULT_CAD_LAYER
 62
     7
370
     0
100
AcDbLine
 10
555.2291741431316
 20
586.600137000181
 30
0.0
 11
555.2291741431316
 21
586.600137000181
 31
0.0
  0
LINE
  5
E7
330
1F
100
AcDbEntity
  8
_DEFAULT_CAD_LAYER
 62
     7
370
     0
100
AcDbLine
 10
556.0460938462447
 20
586.0797017520969
 30
0.0
 11
556.0460938462447
 21
586.0797017520969
 31
0.0
  0
LINE
  5
E8
330
1F
100
AcDbEntity
  8
_DEFAULT_CAD_LAYER
 62
     7
370
     0
100
AcDbLine
 10
556.0336937463297
 20
586.8814203038758
 30
0.0
 11
556.0336937463297
 21
586.8814203038758
 31
0.0
  0
LINE
  5
E9
330
1F
100
AcDbEntity
  8
_DEFAULT_CAD_LAYER
 62
     7
370
     0
100
AcDbLine
 10
556.036733020165
 20
586.8794840728312
 30
0.0
 11
556.036733020165
 21
586.8794840728312
 31
0.0
  0
LINE
  5
EA
330
1F
100
AcDbEntity
  8
_DEFAULT_CAD_LAYER
 62
     7
370
     0
100
AcDbLine
 10
556.0462155545312
 20
586.8734430319723
 30
0.0
 11
556.0462155545312
 21
586.8734430319723
 31
0.0
  0
LINE
  5
EB
330
1F
100
AcDbEntity
  8
_DEFAULT_CAD_LAYER
 62
     7
370
     0
100
AcDbLine
 10
555.0845458359726
 20
580.366784625551
 30
0.0
 11
555.0845458359726
 21
580.366784625551
 31
0.0
  0
LINE
  5
EC
330
1F
100
AcDbEntity
  8
_DEFAULT_CAD_LAYER
 62
     7
370
     0
100
AcDbLine
 10
555.4034810868413
 20
580.0745343125725
 30
0.0
 11
555.4034810868413
 21
580.0745343125725
 31
0.0
  0
LINE
  5
ED
330
1F
100
AcDbEntity
  8
_DEFAULT_CAD_LAYER
 62
     7
370
     0
100
AcDbLine
 10
555.9118148097646
 20
579.6087322752713
 30
0.0
 11
555.9118148097646
 21
579.6087322752713
 31
0.0
  0
LINE
  5
EE
330
1F
100
AcDbEntity
  8
_DEFAULT_CAD_LAYER
 62
     7
370
     0
100
AcDbLine
 10
554.5909140010706
 20
582.4053564882505
 30
0.0
 11
554.5909140010706
 21
582.4053564882505
 31
0.0
  0
LINE
  5
EF
330
1F
100
AcDbEntity
  8
_DEFAULT_CAD_LAYER
 62
     7
370
     0
100
AcDbLine
 10
555.1472850406715
 20
581.8955363604067
 30
0.0
 11
555.1472850406715
 21
581.8955363604067
 31
0.0
  0
LINE
  5
F0
330
1F
100
AcDbEntity
  8
_DEFAULT_CAD_LAYER
 62
     7
370
     0
100
AcDbLine
 10
556.0340548822509
 20
581.0829615104897
 30
0.0
 11
556.0340548822509
 21
581.0829615104897
 31
0.0
  0
LINE
  5
F1
330
1F
100
AcDbEntity
  8
_DEFAULT_CAD_LAYER
 62
     7
370
     0
100
AcDbLine
 10
554.6024829670988
 20
583.9809971079185
 30
0.0
 11
554.6024829670988
 21
583.9809971079185
 31
0.0
  0
LINE
  5
F2
330
1F
100
AcDbEntity
  8
_DEFAULT_CAD_LAYER
 62
     7
370
     0
100
AcDbLine
 10
555.1588329690077
 20
583.4711962574789
 30
0.0
 11
555.1588329690077
 21
583.4711962574789
 31
0.0
  0
LINE
  5
F3
330
1F
100
AcDbEntity
  8
_DEFAULT_CAD_LAYER
 62
     7
370
     0
100
AcDbLine
 10
556.0455692797424
 20
582.6586521327785
 30
0.0
 11
556.0455692797424
 21
582.6586521327785
 31
0.0
  0
LINE
  5
F4
330
1F
100
AcDbEntity
  8
_DEFAULT_CAD_LAYER
 62
     7
370
     0
100
AcDbLine
 10
554.7247230393425
 20
585.4552263428719
 30
0.0
 11
554.7247230393425
 21
585.4552263428719
 31
0.0
  0
LINE
  5
F5
330
1F
100
AcDbEntity
  8
_DEFAULT_CAD_LAYER
 62
     7
370
     0
100
AcDbLine
 10
555.2340398431032
 20
584.9885234780301
 30
0.0
 11
555.2340398431032
 21
584.9885234780301
 31
0.0
  0
LINE
  5
F6
330
1F
100
AcDbEntity
  8
_DEFAULT_CAD_LAYER
 62
     7
370
     0
100
AcDbLine
 10
556.0458124718665
 20
584.244670911913
 30
0.0
 11
556.0458124718665
 21
584.244670911913
 31
0.0
  0
LINE
  5
F7
330
1F
100
AcDbEntity
  8
_DEFAULT_CAD_LAYER
 62
     7
370
     0
100
AcDbLine
 10
554.899384414458
 20
586.8814203038758
 30
0.0
 11
554.899384414458
 21
586.8814203038758
 31
0.0
  0
LINE
  5
F8
330
1F
100
AcDbEntity
  8
_DEFAULT_CAD_LAYER
 62
     7
370
     0
100
AcDbLine
 10
555.3414581464842
 20
586.4763343620866
 30
0.0
 11
555.3414581464842
 21
586.4763343620866
 31
0.0
  0
LINE
  5
F9
330
1F
100
AcDbEntity
  8
_DEFAULT_CAD_LAYER
 62
     7
370
     0
100
AcDbLine
 10
556.0460556639907
 20
585.830689691789
 30
0.0
 11
556.0460556639907
 21
585.830689691789
 31
0.0
  0
LINE
  5
FA
330
1F
100
AcDbEntity
  8
_DEFAULT_CAD_LAYER
 62
     7
370
     0
100
AcDbLine
 10
554.4927873877665
 20
580.5331871750428
 30
0.0
 11
554.5816400919772
 21
580.6390777044983
 31
0.0
  0
LINE
  5
FB
330
1F
100
AcDbEntity
  8
_DEFAULT_CAD_LAYER
 62
     7
370
     0
100
AcDbLine
 10
554.4927876408781
 20
580.5331872903396
 30
0.0
 11
554.5805981393413
 21
580.525504867186
 31
0.0
  0
LINE
  5
FC
330
1F
100
AcDbEntity
  8
_DEFAULT_CAD_LAYER
 62
     7
370
     0
100
AcDbLine
 10
554.0260986312109
 20
579.6206383174173
 30
0.0
 11
554.0260986312109
 21
579.6206383174173
 31
0.0
  0
LINE
  5
FD
330
1F
100
AcDbEntity
  8
_DEFAULT_CAD_LAYER
 62
     7
370
     0
100
AcDbLine
 10
554.2973889800458
 20
579.8288067236537
 30
0.0
 11
554.2973889800458
 21
579.8288067236537
 31
0.0
  0
LINE
  5
FE
330
1F
100
AcDbEntity
  8
_DEFAULT_CAD_LAYER
 62
     7
370
     0
100
AcDbLine
 10
554.5761689397381
 20
580.0427221104304
 30
0.0
 11
554.5761689397381
 21
580.0427221104304
 31
0.0
  0
LINE
  5
FF
330
1F
100
AcDbEntity
  8
_DEFAULT_CAD_LAYER
 62
     7
370
     0
100
AcDbLine
 10
553.976540140678
 20
580.3915189218391
 30
0.0
 11
553.976540140678
 21
580.3915189218391
 31
0.0
  0
LINE
  5
100
330
1F
100
AcDbEntity
  8
_DEFAULT_CAD_LAYER
 62
     7
370
     0
100
AcDbLine
 10
554.2759583611618
 20
580.6212706031059
 30
0.0
 11
554.2759583611618
 21
580.6212706031059
 31
0.0
  0
LINE
  5
101
330
1F
100
AcDbEntity
  8
_DEFAULT_CAD_LAYER
 62
     7
370
     0
100
AcDbLine
 10
554.5836427288368
 20
580.8573651221991
 30
0.0
 11
554.5836427288368
 21
580.8573651221991
 31
0.0
  0
LINE
  5
102
330
1F
100
AcDbEntity
  8
_DEFAULT_CAD_LAYER
 62
     7
370
     0
100
AcDbLine
 10
553.976540140678
 20
581.2004270935302
 30
0.0
 11
553.976540140678
 21
581.2004270935302
 31
0.0
  0
LINE
  5
103
330
1F
100
AcDbEntity
  8
_DEFAULT_CAD_LAYER
 62
     7
370
     0
100
AcDbLine
 10
554.2654563038851
 20
581.4221202628223
 30
0.0
 11
554.2654563038851
 21
581.4221202628223
 31
0.0
  0
LINE
  5
104
330
1F
100
AcDbEntity
  8
_DEFAULT_CAD_LAYER
 62
     7
370
     0
100
AcDbLine
 10
554.5623486801869
 20
581.6499337956839
 30
0.0
 11
554.5623486801869
 21
581.6499337956839
 31
0.0
  0
LINE
  5
105
330
1F
100
AcDbEntity
  8
_DEFAULT_CAD_LAYER
 62
     7
370
     0
100
AcDbLine
 10
553.976540140678
 20
580.2193049512526
 30
0.0
 11
553.976540140678
 21
580.2193049512526
 31
0.0
  0
LINE
  5
106
330
1F
100
AcDbEntity
  8
_DEFAULT_CAD_LAYER
 62
     7
370
     0
100
AcDbLine
 10
554.2022072608409
 20
580.249014591247
 30
0.0
 11
554.2022072608409
 21
580.249014591247
 31
0.0
  0
LINE
  5
107
330
1F
100
AcDbEntity
  8
_DEFAULT_CAD_LAYER
 62
     7
370
     0
100
AcDbLine
 10
554.5785160449868
 20
580.2985565825467
 30
0.0
 11
554.5785160449868
 21
580.2985565825467
 31
0.0
  0
LINE
  5
108
330
1F
100
AcDbEntity
  8
_DEFAULT_CAD_LAYER
 62
     7
370
     0
100
AcDbLine
 10
554.3759321163704
 20
581.1713307779685
 30
0.0
 11
554.3759321163704
 21
581.1713307779685
 31
0.0
  0
LINE
  5
109
330
1F
100
AcDbEntity
  8
_DEFAULT_CAD_LAYER
 62
     7
370
     0
100
AcDbLine
 10
554.4549733877807
 20
581.1817367587626
 30
0.0
 11
554.4549733877807
 21
581.1817367587626
 31
0.0
  0
LINE
  5
10A
330
1F
100
AcDbEntity
  8
_DEFAULT_CAD_LAYER
 62
     7
370
     0
100
AcDbLine
 10
554.5867778115721
 20
581.1990891403484
 30
0.0
 11
554.5867778115721
 21
581.1990891403484
 31
0.0
  0
LINE
  5
10B
330
1F
100
AcDbEntity
  8
_DEFAULT_CAD_LAYER
 62
     7
370
     0
100
AcDbLine
 10
554.3580028225846
 20
581.0325386379823
 30
0.0
 11
554.3580028225846
 21
581.0325386379823
 31
0.0
  0
LINE
  5
10C
330
1F
100
AcDbEntity
  8
_DEFAULT_CAD_LAYER
 62
     7
370
     0
100
AcDbLine
 10
554.4448825048948
 20
580.9529280766927
 30
0.0
 11
554.4448825048948
 21
580.9529280766927
 31
0.0
  0
LINE
  5
10D
330
1F
100
AcDbEntity
  8
_DEFAULT_CAD_LAYER
 62
     7
370
     0
100
AcDbLine
 10
554.5833553523926
 20
580.8260410897758
 30
0.0
 11
554.5833553523926
 21
580.8260410897758
 31
0.0
  0
LWPOLYLINE
  5
10E
330
1F
100
AcDbEntity
  8
_DEFAULT_CAD_LAYER
 62
     7
370
    15
100
AcDbPolyline
 90
        8
 70
     1
 43
0.0
 10
556.044835104531
 20
577.8706036847835
 10
554.5722966113618
 20
577.8706036847836
 10
554.5722966113618
 20
579.6206383174173
 10
553.976540140678
 20
579.6206383174173
 10
553.976540140678
 20
581.6499337956839
 10
554.5909140010707
 20
581.6499337956839
 10
554.5909140010706
 20
586.8814203038758
 10
556.0462167777257
 20
586.8814203038758
  0
INSERT
  5
2C1
330
1F
100
AcDbEntity
  8
_DEFAULT_CAD_LAYER
  6
Continuous
370
     0
100
AcDbBlockReference
  2
block77
 10
563.1947516240563
 20
578.4440387423541
 30
0.0
 42
0.6664599875653169
1001
CHIEFARC-LNWT
1070
     0
  0
LINE
  5
2C2
330
1F
100
AcDbEntity
  8
_DEFAULT_CAD_LAYER
 62
   253
370
    13
100
AcDbLine
 10
572.3241993215838
 20
586.4663349453145
 30
0.0
 11
572.4013626064818
 21
586.5434982302125
 31
0.0
1001
CHIEFARC-LNWT
1070
    12
  0
LINE
  5
2C3
330
1F
100
AcDbEntity
  8
_DEFAULT_CAD_LAYER
 62
   253
370
    13
100
AcDbLine
 10
571.6170925403972
 20
586.4663349453145
 30
0.0
 11
572.4013626064818
 21
587.2506050113992
 31
0.0
1001
CHIEFARC-LNWT
1070
    12
  0
LINE
  5
2C4
330
1F
100
AcDbEntity
  8
_DEFAULT_CAD_LAYER
 62
   253
370
    13
100
AcDbLine
 10
570.9099857592107
 20
586.4663349453145
 30
0.0
 11
572.4013626064818
 21
587.9577117925855
 31
0.0
1001
CHIEFARC-LNWT
1070
    12
  0
LINE
  5
2C5
330
1F
100
AcDbEntity
  8
_DEFAULT_CAD_LAYER
 62
   253
370
    13
100
AcDbLine
 10
570.2028789780239
 20
586.4663349453145
 30
0.0
 11
572.2028789780239
 21
588.4663349453145
 31
0.0
1001
CHIEFARC-LNWT
1070
    12
  0
LINE
  5
2C6
330
1F
100
AcDbEntity
  8
_DEFAULT_CAD_LAYER
 62
   253
370
    13
100
AcDbLine
 10
569.4957721968376
 20
586.4663349453145
 30
0.0
 11
571.4957721968376
 21
588.4663349453145
 31
0.0
1001
CHIEFARC-LNWT
1070
    12
  0
LINE
  5
2C7
330
1F
100
AcDbEntity
  8
_DEFAULT_CAD_LAYER
 62
   253
370
    13
100
AcDbLine
 10
568.7886654156508
 20
586.4663349453145
 30
0.0
 11
570.7886654156509
 21
588.4663349453145
 31
0.0
1001
CHIEFARC-LNWT
1070
    12
  0
LINE
  5
2C8
330
1F
100
AcDbEntity
  8
_DEFAULT_CAD_LAYER
 62
   253
370
    13
100
AcDbLine
 10
568.0815586344644
 20
586.4663349453145
 30
0.0
 11
570.0815586344644
 21
588.4663349453145
 31
0.0
1001
CHIEFARC-LNWT
1070
    12
  0
LINE
  5
2C9
330
1F
100
AcDbEntity
  8
_DEFAULT_CAD_LAYER
 62
   253
370
    13
100
AcDbLine
 10
567.374451853278
 20
586.4663349453145
 30
0.0
 11
569.374451853278
 21
588.4663349453145
 31
0.0
1001
CHIEFARC-LNWT
1070
    12
  0
LINE
  5
2CA
330
1F
100
AcDbEntity
  8
_DEFAULT_CAD_LAYER
 62
   253
370
    13
100
AcDbLine
 10
566.6673450720913
 20
586.4663349453145
 30
0.0
 11
568.6673450720912
 21
588.4663349453145
 31
0.0
1001
CHIEFARC-LNWT
1070
    12
  0
LINE
  5
2CB
330
1F
100
AcDbEntity
  8
_DEFAULT_CAD_LAYER
 62
   253
370
    13
100
AcDbLine
 10
565.9602382909047
 20
586.4663349453145
 30
0.0
 11
567.9602382909047
 21
588.4663349453145
 31
0.0
1001
CHIEFARC-LNWT
1070
    12
  0
LINE
  5
2CC
330
1F
100
AcDbEntity
  8
_DEFAULT_CAD_LAYER
 62
   253
370
    13
100
AcDbLine
 10
565.2531315097183
 20
586.4663349453145
 30
0.0
 11
567.2531315097182
 21
588.4663349453145
 31
0.0
1001
CHIEFARC-LNWT
1070
    12
  0
LINE
  5
2CD
330
1F
100
AcDbEntity
  8
_DEFAULT_CAD_LAYER
 62
   253
370
    13
100
AcDbLine
 10
564.5460247285315
 20
586.4663349453145
 30
0.0
 11
566.5460247285315
 21
588.4663349453145
 31
0.0
1001
CHIEFARC-LNWT
1070
    12
  0
LINE
  5
2CE
330
1F
100
AcDbEntity
  8
_DEFAULT_CAD_LAYER
 62
   253
370
    13
100
AcDbLine
 10
563.8389179473453
 20
586.4663349453145
 30
0.0
 11
565.8389179473452
 21
588.4663349453145
 31
0.0
1001
CHIEFARC-LNWT
1070
    12
  0
LINE
  5
2CF
330
1F
100
AcDbEntity
  8
_DEFAULT_CAD_LAYER
 62
   253
370
    13
100
AcDbLine
 10
563.1318111661584
 20
586.4663349453145
 30
0.0
 11
565.1318111661584
 21
588.4663349453145
 31
0.0
1001
CHIEFARC-LNWT
1070
    12
  0
LINE
  5
2D0
330
1F
100
AcDbEntity
  8
_DEFAULT_CAD_LAYER
 62
   253
370
    13
100
AcDbLine
 10
562.4247043849721
 20
586.4663349453145
 30
0.0
 11
564.4247043849721
 21
588.4663349453145
 31
0.0
1001
CHIEFARC-LNWT
1070
    12
  0
LINE
  5
2D1
330
1F
100
AcDbEntity
  8
_DEFAULT_CAD_LAYER
 62
   253
370
    13
100
AcDbLine
 10
561.7175976037854
 20
586.4663349453145
 30
0.0
 11
563.7175976037854
 21
588.4663349453145
 31
0.0
1001
CHIEFARC-LNWT
1070
    12
  0
LINE
  5
2D2
330
1F
100
AcDbEntity
  8
_DEFAULT_CAD_LAYER
 62
   253
370
    13
100
AcDbLine
 10
561.0104908225989
 20
586.4663349453145
 30
0.0
 11
563.0104908225989
 21
588.4663349453145
 31
0.0
1001
CHIEFARC-LNWT
1070
    12
  0
LINE
  5
2D3
330
1F
100
AcDbEntity
  8
_DEFAULT_CAD_LAYER
 62
   253
370
    13
100
AcDbLine
 10
560.3033840414124
 20
586.4663349453145
 30
0.0
 11
562.3033840414123
 21
588.4663349453145
 31
0.0
1001
CHIEFARC-LNWT
1070
    12
  0
LINE
  5
2D4
330
1F
100
AcDbEntity
  8
_DEFAULT_CAD_LAYER
 62
   253
370
    13
100
AcDbLine
 10
559.5962772602257
 20
586.4663349453145
 30
0.0
 11
561.5962772602257
 21
588.4663349453145
 31
0.0
1001
CHIEFARC-LNWT
1070
    12
  0
LINE
  5
2D5
330
1F
100
AcDbEntity
  8
_DEFAULT_CAD_LAYER
 62
   253
370
    13
100
AcDbLine
 10
558.8891704790392
 20
586.4663349453145
 30
0.0
 11
560.8891704790391
 21
588.4663349453145
 31
0.0
1001
CHIEFARC-LNWT
1070
    12
  0
LINE
  5
2D6
330
1F
100
AcDbEntity
  8
_DEFAULT_CAD_LAYER
 62
   253
370
    13
100
AcDbLine
 10
558.1820636978528
 20
586.4663349453145
 30
0.0
 11
560.1820636978528
 21
588.4663349453145
 31
0.0
1001
CHIEFARC-LNWT
1070
    12
  0
LINE
  5
2D7
330
1F
100
AcDbEntity
  8
_DEFAULT_CAD_LAYER
 62
   253
370
    13
100
AcDbLine
 10
557.4749569166662
 20
586.4663349453145
 30
0.0
 11
559.4749569166662
 21
588.4663349453145
 31
0.0
1001
CHIEFARC-LNWT
1070
    12
  0
LINE
  5
2D8
330
1F
100
AcDbEntity
  8
_DEFAULT_CAD_LAYER
 62
   253
370
    13
100
AcDbLine
 10
556.7678501354798
 20
586.4663349453145
 30
0.0
 11
558.7678501354798
 21
588.4663349453145
 31
0.0
1001
CHIEFARC-LNWT
1070
    12
  0
LINE
  5
2D9
330
1F
100
AcDbEntity
  8
_DEFAULT_CAD_LAYER
 62
   253
370
    13
100
AcDbLine
 10
556.3076134941905
 20
586.7132050852119
 30
0.0
 11
558.0607433542931
 21
588.4663349453145
 31
0.0
1001
CHIEFARC-LNWT
1070
    12
  0
LINE
  5
2DA
330
1F
100
AcDbEntity
  8
_DEFAULT_CAD_LAYER
 62
   253
370
    13
100
AcDbLine
 10
556.3076134941905
 20
587.4203118663985
 30
0.0
 11
557.3536365731065
 21
588.4663349453145
 31
0.0
1001
CHIEFARC-LNWT
1070
    12
  0
LINE
  5
2DB
330
1F
100
AcDbEntity
  8
_DEFAULT_CAD_LAYER
 62
   253
370
    13
100
AcDbLine
 10
556.3076134941905
 20
588.1274186475849
 30
0.0
 11
556.6465297919201
 21
588.4663349453145
 31
0.0
1001
CHIEFARC-LNWT
1070
    12
  0
LINE
  5
2DC
330
1F
100
AcDbEntity
  8
_DEFAULT_CAD_LAYER
 62
     7
370
    18
100
AcDbLine
 10
572.4013626064818
 20
588.4663349453145
 30
0.0
 11
572.4013626064818
 21
586.4663349453145
 31
0.0
  0
LINE
  5
2DD
330
1F
100
AcDbEntity
  8
_DEFAULT_CAD_LAYER
 62
     7
370
    18
100
AcDbLine
 10
572.4013626064818
 20
586.4663349453145
 30
0.0
 11
556.3076134941905
 21
586.4663349453145
 31
0.0
  0
LINE
  5
2DE
330
1F
100
AcDbEntity
  8
_DEFAULT_CAD_LAYER
 62
     7
370
    18
100
AcDbLine
 10
556.3076134941905
 20
586.4663349453145
 30
0.0
 11
556.3076134941905
 21
588.4663349453145
 31
0.0
  0
LINE
  5
2DF
330
1F
100
AcDbEntity
  8
_DEFAULT_CAD_LAYER
 62
     7
370
    18
100
AcDbLine
 10
556.3076134941905
 20
588.4663349453145
 30
0.0
 11
572.4013626064818
 21
588.4663349453145
 31
0.0
  0
LWPOLYLINE
  5
2E0
330
1F
100
AcDbEntity
  8
_DEFAULT_CAD_LAYER
100
AcDbPolyline
 90
       42
 70
     0
 43
0.0
 10
556.2050641626586
 20
586.4415585931379
 10
556.938655025375
 20
586.4415585931379
 10
556.938655025375
 20
586.6787431908714
 10
557.1880759186987
 20
586.6787431908714
 10
557.1880759186986
 20
586.4439941148021
 10
557.9656822331781
 20
586.4439941148021
 10
557.9656822331781
 20
586.6810323213684
 10
558.2004313092474
 20
586.6810323213685
 10
558.2004313092473
 20
586.4586659320565
 10
558.9193503547094
 20
586.4586659320564
 10
558.9193503547094
 20
586.6884122894863
 10
559.1540994307787
 20
586.6884122894863
 10
559.1540994307787
 20
586.4586659320564
 10
559.8730184762409
 20
586.4586659320564
 10
559.8730184762409
 20
586.6787431908714
 10
560.1077675523102
 20
586.6787431908714
 10
560.1077675523102
 20
586.4439941148021
 10
560.8266865977723
 20
586.4439941148021
 10
560.8266865977723
 20
586.6810323213684
 10
561.0614356738416
 20
586.6810323213685
 10
561.0614356738415
 20
586.4439941148022
 10
561.795026536558
 20
586.4439941148021
 10
561.795026536558
 20
586.6736523532506
 10
562.0444474298816
 20
586.6736523532506
 10
562.0444474298816
 20
586.452253309715
 10
562.8364596331309
 20
586.452253309715
 10
562.8364596331307
 20
586.6810323213685
 10
563.1008182721932
 20
586.6810323213685
 10
563.1008182721934
 20
586.452253309715
 10
563.8197373176555
 20
586.452253309715
 10
563.8197373176555
 20
586.6662723851329
 10
564.0398145764705
 20
586.6662723851329
 10
564.0398145764703
 20
586.4448733415973
 10
564.7880772564412
 20
586.4448733415973
 10
564.7880772564412
 20
586.6736523532508
 10
565.0374981497648
 20
586.6736523532506
 10
565.0374981497648
 20
586.4516625928903
 10
565.7857608297356
 20
586.4516625928903
 10
565.7857608297355
 20
586.6662723851329
 10
566.0645253575678
 20
586.6662723851329
 10
566.0645253575678
 20
586.4442826247725
 10
566.6807416822496
 20
586.4442826247725
  0
LWPOLYLINE
  5
2E1
330
1F
100
AcDbEntity
  8
_DEFAULT_CAD_LAYER
100
AcDbPolyline
 90
       42
 70
     0
 43
0.0
 10
566.0686725276828
 20
586.480649195798
 10
566.8022633903993
 20
586.480649195798
 10
566.8022633903993
 20
586.7178337935316
 10
567.0516842837229
 20
586.7178337935314
 10
567.0516842837228
 20
586.4830847174621
 10
567.8292905982023
 20
586.4830847174622
 10
567.8292905982023
 20
586.7201229240286
 10
568.0640396742716
 20
586.7201229240286
 10
568.0640396742715
 20
586.4977565347166
 10
568.7829587197336
 20
586.4977565347166
 10
568.7829587197336
 20
586.7275028921465
 10
569.017707795803
 20
586.7275028921465
 10
569.017707795803
 20
586.4977565347166
 10
569.7366268412651
 20
586.4977565347166
 10
569.7366268412651
 20
586.7178337935316
 10
569.9713759173344
 20
586.7178337935314
 10
569.9713759173344
 20
586.4830847174621
 10
570.6902949627965
 20
586.4830847174622
 10
570.6902949627965
 20
586.7201229240286
 10
570.9250440388658
 20
586.7201229240286
 10
570.9250440388657
 20
586.4830847174622
 10
571.6586349015822
 20
586.4830847174622
 10
571.6586349015822
 20
586.7127429559108
 10
571.9080557949059
 20
586.7127429559108
 10
571.9080557949059
 20
586.4913439123752
 10
572.7000679981551
 20
586.4913439123751
 10
572.700067998155
 20
586.7201229240286
 10
572.9644266372175
 20
586.7201229240286
 10
572.9644266372176
 20
586.4913439123751
 10
573.6833456826797
 20
586.4913439123751
 10
573.6833456826797
 20
586.7053629877929
 10
573.9034229414947
 20
586.7053629877929
 10
573.9034229414946
 20
586.4839639442573
 10
574.6516856214654
 20
586.4839639442573
 10
574.6516856214654
 20
586.7127429559108
 10
573.4019244305138
 20
586.5428843520992
 10
574.3218975224289
 20
586.4833732274326
 10
573.6833456826797
 20
586.4913439123752
 10
573.4019244305136
 20
586.5428843520992
 10
573.6833456826797
 20
586.7053629877929
 10
573.9034229414946
 20
586.4839639442573
 10
574.3218975224289
 20
586.4833732274326
  0
LINE
  5
2E2
330
1F
100
AcDbEntity
  8
_DEFAULT_CAD_LAYER
 62
   174
370
     9
100
AcDbLine
 10
556.2368194835574
 20
588.5589787711317
 30
0.0
 11
571.3571568762504
 21
588.5589787711317
 31
0.0
1001
CHIEFARC-LNWT
1070
    10
  0
SOLID
  5
2E3
330
1F
100
AcDbEntity
  8
_DEFAULT_CAD_LAYER
 62
     7
100
AcDbTrace
 10
546.8769530235107
 20
579.4129919217894
 30
0.0
 11
546.8769530235107
 21
577.7918591143533
 31
0.0
 12
539.4221380602411
 22
579.4129919217894
 32
0.0
 13
539.4221380602411
 23
577.7918591143533
 33
0.0
  0
LINE
  5
2E4
330
1F
100
AcDbEntity
  8
_DEFAULT_CAD_LAYER
 62
     7
100
AcDbLine
 10
546.8769530235107
 20
579.4129919217894
 30
0.0
 11
546.8769530235107
 21
577.7918591143533
 31
0.0
  0
LINE
  5
2E5
330
1F
100
AcDbEntity
  8
_DEFAULT_CAD_LAYER
 62
     7
100
AcDbLine
 10
546.8769530235107
 20
577.7918591143533
 30
0.0
 11
539.4221380602411
 21
577.7918591143533
 31
0.0
  0
LINE
  5
2E6
330
1F
100
AcDbEntity
  8
_DEFAULT_CAD_LAYER
 62
     7
100
AcDbLine
 10
539.4221380602411
 20
577.7918591143533
 30
0.0
 11
539.4221380602411
 21
579.4129919217894
 31
0.0
  0
LINE
  5
2E7
330
1F
100
AcDbEntity
  8
_DEFAULT_CAD_LAYER
 62
     7
100
AcDbLine
 10
539.4221380602411
 20
579.4129919217894
 30
0.0
 11
546.8769530235107
 21
579.4129919217894
 31
0.0
  0
LWPOLYLINE
  5
2E8
330
1F
100
AcDbEntity
  8
_DEFAULT_CAD_LAYER
370
    15
100
AcDbPolyline
 90
        3
 70
     0
 43
0.0
 10
556.112171525489
 20
586.645688636749
 10
556.112171525489
 20
588.688562694962
 10
558.1162688418459
 20
588.6885626949619
  0
INSERT
  5
2EE
330
1F
100
AcDbEntity
  8
_DEFAULT_CAD_LAYER
  6
Continuous
370
     0
100
AcDbBlockReference
  2
block9_0
 10
571.5356800130719
 20
582.0678937676873
 30
0.0
 41
1.542372881355957
 50
90.0
1001
CHIEFARC-LNWT
1070
     0
  0
LINE
  5
2EF
330
1F
100
AcDbEntity
  8
_DEFAULT_CAD_LAYER
 62
     7
370
     0
100
AcDbLine
 10
538.3544332792862
 20
581.9451102121202
 30
0.0
 11
538.4749559560971
 21
582.0887435452096
 31
0.0
  0
LINE
  5
2F0
330
1F
100
AcDbEntity
  8
_DEFAULT_CAD_LAYER
 62
     7
370
     0
100
AcDbLine
 10
538.0075549444956
 20
583.8255905466644
 30
0.0
 11
538.1280776213171
 21
583.969223879745
 31
0.0
  0
LINE
  5
2F1
330
1F
100
AcDbEntity
  8
_DEFAULT_CAD_LAYER
 62
     7
370
     0
100
AcDbLine
 10
537.6780711821434
 20
585.7268009247817
 30
0.0
 11
537.7811992868092
 21
585.8497042140522
 31
0.0
  0
LINE
  5
2F2
330
1F
100
AcDbEntity
  8
_DEFAULT_CAD_LAYER
 62
     7
370
     0
100
AcDbLine
 10
538.3544335317969
 20
581.9451103229109
 30
0.0
 11
538.5038627365097
 21
581.9320369614875
 31
0.0
  0
LINE
  5
2F3
330
1F
100
AcDbEntity
  8
_DEFAULT_CAD_LAYER
 62
     7
370
     0
100
AcDbLine
 10
538.0075551977807
 20
583.8255906573464
 30
0.0
 11
538.1569844024916
 21
583.8125172959019
 31
0.0
  0
LINE
  5
2F4
330
1F
100
AcDbEntity
  8
_DEFAULT_CAD_LAYER
 62
     7
370
     0
100
AcDbLine
 10
537.6780745941587
 20
585.7045488869528
 30
0.0
 11
537.8101060684236
 21
585.6929976297456
 31
0.0
  0
LINE
  5
2F5
330
1F
100
AcDbEntity
  8
_DEFAULT_CAD_LAYER
 62
     7
370
     0
100
AcDbLine
 10
538.504311971325
 20
581.9316120173852
 30
0.0
 11
538.4754055666979
 21
582.0883187296034
 31
0.0
  0
LINE
  5
2F6
330
1F
100
AcDbEntity
  8
_DEFAULT_CAD_LAYER
 62
     7
370
     0
100
AcDbLine
 10
538.1574351058216
 20
583.8120926180917
 30
0.0
 11
538.1285287011943
 21
583.9687993303099
 31
0.0
  0
LINE
  5
2F7
330
1F
100
AcDbEntity
  8
_DEFAULT_CAD_LAYER
 62
     7
370
     0
100
AcDbLine
 10
537.810558240318
 20
585.6925732187982
 30
0.0
 11
537.7816518356908
 21
585.8492799310166
 31
0.0
  0
LINE
  5
2F8
330
1F
100
AcDbEntity
  8
_DEFAULT_CAD_LAYER
 62
     7
370
     0
100
AcDbLine
 10
537.7785867866353
 20
580.1480561334831
 30
0.0
 11
537.9733080251942
 21
580.3509975086486
 31
0.0
  0
LINE
  5
2F9
330
1F
100
AcDbEntity
  8
_DEFAULT_CAD_LAYER
 62
     7
370
     0
100
AcDbLine
 10
538.0013814041289
 20
580.1131504554367
 30
0.0
 11
537.9737609429651
 21
580.3505749801739
 31
0.0
  0
LINE
  5
2FA
330
1F
100
AcDbEntity
  8
_DEFAULT_CAD_LAYER
 62
     7
370
     0
100
AcDbLine
 10
537.7785867614081
 20
580.1480562585949
 30
0.0
 11
538.0009286465529
 21
580.1135731306879
 31
0.0
  0
LINE
  5
2FB
330
1F
100
AcDbEntity
  8
_DEFAULT_CAD_LAYER
 62
     7
370
     0
100
AcDbLine
 10
537.8265868273579
 20
582.6225916988474
 30
0.0
 11
538.0016331573404
 21
582.68978568935
 31
0.0
  0
LINE
  5
2FC
330
1F
100
AcDbEntity
  8
_DEFAULT_CAD_LAYER
 62
     7
370
     0
100
AcDbLine
 10
538.4348751567991
 20
584.4354668116787
 30
0.0
 11
538.6099214867643
 21
584.5026608022264
 31
0.0
  0
LINE
  5
2FD
330
1F
100
AcDbEntity
  8
_DEFAULT_CAD_LAYER
 62
     7
370
     0
100
AcDbLine
 10
539.0431634861045
 20
586.2483419248637
 30
0.0
 11
539.1331969152836
 21
586.2829025202619
 31
0.0
  0
LINE
  5
2FE
330
1F
100
AcDbEntity
  8
_DEFAULT_CAD_LAYER
 62
     7
370
     0
100
AcDbLine
 10
537.8265870886203
 20
582.6225915538972
 30
0.0
 11
537.950942724512
 21
582.538712618389
 31
0.0
  0
LINE
  5
2FF
330
1F
100
AcDbEntity
  8
_DEFAULT_CAD_LAYER
 62
     7
370
     0
100
AcDbLine
 10
538.4348754184409
 20
584.4354666665392
 30
0.0
 11
538.5592310543369
 21
584.3515877310375
 31
0.0
  0
LINE
  5
300
330
1F
100
AcDbEntity
  8
_DEFAULT_CAD_LAYER
 62
     7
370
     0
100
AcDbLine
 10
539.0431637483164
 20
586.2483417792622
 30
0.0
 11
539.1331969152836
 21
586.1876136413445
 31
0.0
  0
LINE
  5
301
330
1F
100
AcDbEntity
  8
_DEFAULT_CAD_LAYER
 62
     7
370
     0
100
AcDbLine
 10
537.9513933718231
 20
582.5382910191688
 30
0.0
 11
538.0020841823127
 21
582.6893639009664
 31
0.0
  0
LINE
  5
302
330
1F
100
AcDbEntity
  8
_DEFAULT_CAD_LAYER
 62
     7
370
     0
100
AcDbLine
 10
538.5596831151933
 20
584.3511656528834
 30
0.0
 11
538.6103739256828
 21
584.502238534681
 31
0.0
  0
LINE
  5
303
330
1F
100
AcDbEntity
  8
_DEFAULT_CAD_LAYER
 62
     7
370
     0
100
AcDbLine
 10
537.679194340635
 20
578.4019318891261
 30
0.0
 11
537.679194340635
 21
578.4019318891261
 31
0.0
  0
LINE
  5
304
330
1F
100
AcDbEntity
  8
_DEFAULT_CAD_LAYER
 62
     7
370
     0
100
AcDbLine
 10
537.8222839379727
 20
578.5117283988133
 30
0.0
 11
537.8222839379727
 21
578.5117283988133
 31
0.0
  0
LINE
  5
305
330
1F
100
AcDbEntity
  8
_DEFAULT_CAD_LAYER
 62
     7
370
     0
100
AcDbLine
 10
537.9693238616172
 20
578.6245561004856
 30
0.0
 11
537.9693238616172
 21
578.6245561004856
 31
0.0
  0
LINE
  5
306
330
1F
100
AcDbEntity
  8
_DEFAULT_CAD_LAYER
 62
     7
370
     0
100
AcDbLine
 10
537.6790703213258
 20
579.2107448974086
 30
0.0
 11
537.6790703213258
 21
579.2107448974086
 31
0.0
  0
LINE
  5
307
330
1F
100
AcDbEntity
  8
_DEFAULT_CAD_LAYER
 62
     7
370
     0
100
AcDbLine
 10
538.0399776944919
 20
579.487678864973
 30
0.0
 11
538.0399776944919
 21
579.487678864973
 31
0.0
  0
LINE
  5
308
330
1F
100
AcDbEntity
  8
_DEFAULT_CAD_LAYER
 62
     7
370
     0
100
AcDbLine
 10
538.4108487681442
 20
579.7722582488198
 30
0.0
 11
538.4108487681442
 21
579.7722582488198
 31
0.0
  0
LINE
  5
309
330
1F
100
AcDbEntity
  8
_DEFAULT_CAD_LAYER
 62
     7
370
     0
100
AcDbLine
 10
537.6789463020165
 20
580.0195579056912
 30
0.0
 11
537.6789463020165
 21
580.0195579056912
 31
0.0
  0
LINE
  5
30A
330
1F
100
AcDbEntity
  8
_DEFAULT_CAD_LAYER
 62
     7
370
     0
100
AcDbLine
 10
538.2576714510111
 20
580.4636293311328
 30
0.0
 11
538.2576714510111
 21
580.4636293311328
 31
0.0
  0
LINE
  5
30B
330
1F
100
AcDbEntity
  8
_DEFAULT_CAD_LAYER
 62
     7
370
     0
100
AcDbLine
 10
538.8523736746712
 20
580.919960397154
 30
0.0
 11
538.8523736746712
 21
580.919960397154
 31
0.0
  0
LINE
  5
30C
330
1F
100
AcDbEntity
  8
_DEFAULT_CAD_LAYER
 62
     7
370
     0
100
AcDbLine
 10
537.6863998001941
 20
580.8341853476434
 30
0.0
 11
537.6863998001941
 21
580.8341853476434
 31
0.0
  0
LINE
  5
30D
330
1F
100
AcDbEntity
  8
_DEFAULT_CAD_LAYER
 62
     7
370
     0
100
AcDbLine
 10
538.3999487555938
 20
581.3817107183839
 30
0.0
 11
538.3999487555938
 21
581.3817107183839
 31
0.0
  0
LINE
  5
30E
330
1F
100
AcDbEntity
  8
_DEFAULT_CAD_LAYER
 62
     7
370
     0
100
AcDbLine
 10
539.1331969152836
 20
581.9443518202187
 30
0.0
 11
539.1331969152836
 21
581.9443518202187
 31
0.0
  0
LINE
  5
30F
330
1F
100
AcDbEntity
  8
_DEFAULT_CAD_LAYER
 62
     7
370
     0
100
AcDbLine
 10
537.7167994385082
 20
581.6664199821942
 30
0.0
 11
537.7167994385082
 21
581.6664199821942
 31
0.0
  0
LINE
  5
310
330
1F
100
AcDbEntity
  8
_DEFAULT_CAD_LAYER
 62
     7
370
     0
100
AcDbLine
 10
538.4153555314414
 20
582.2024409249586
 30
0.0
 11
538.4153555314414
 21
582.2024409249586
 31
0.0
  0
LINE
  5
311
330
1F
100
AcDbEntity
  8
_DEFAULT_CAD_LAYER
 62
     7
370
     0
100
AcDbLine
 10
539.1331969152836
 20
582.7532599919098
 30
0.0
 11
539.1331969152836
 21
582.7532599919098
 31
0.0
  0
LINE
  5
312
330
1F
100
AcDbEntity
  8
_DEFAULT_CAD_LAYER
 62
     7
370
     0
100
AcDbLine
 10
537.7471990768217
 20
582.4986546167463
 30
0.0
 11
537.7471990768217
 21
582.4986546167463
 31
0.0
  0
LINE
  5
313
330
1F
100
AcDbEntity
  8
_DEFAULT_CAD_LAYER
 62
     7
370
     0
100
AcDbLine
 10
538.4307623072885
 20
583.0231711315339
 30
0.0
 11
538.4307623072885
 21
583.0231711315339
 31
0.0
  0
LINE
  5
314
330
1F
100
AcDbEntity
  8
_DEFAULT_CAD_LAYER
 62
     7
370
     0
100
AcDbLine
 10
539.1331969152836
 20
583.5621681636009
 30
0.0
 11
539.1331969152836
 21
583.5621681636009
 31
0.0
  0
LINE
  5
315
330
1F
100
AcDbEntity
  8
_DEFAULT_CAD_LAYER
 62
     7
370
     0
100
AcDbLine
 10
537.7775987151342
 20
583.3308892512995
 30
0.0
 11
537.7775987151342
 21
583.3308892512995
 31
0.0
  0
LINE
  5
316
330
1F
100
AcDbEntity
  8
_DEFAULT_CAD_LAYER
 62
     7
370
     0
100
AcDbLine
 10
538.4461690831353
 20
583.8439013381096
 30
0.0
 11
538.4461690831353
 21
583.8439013381096
 31
0.0
  0
LINE
  5
317
330
1F
100
AcDbEntity
  8
_DEFAULT_CAD_LAYER
 62
     7
370
     0
100
AcDbLine
 10
539.1331969152836
 20
584.3710763352918
 30
0.0
 11
539.1331969152836
 21
584.3710763352918
 31
0.0
  0
LINE
  5
318
330
1F
100
AcDbEntity
  8
_DEFAULT_CAD_LAYER
 62
     7
370
     0
100
AcDbLine
 10
537.8079983534457
 20
584.163123885854
 30
0.0
 11
537.8079983534457
 21
584.163123885854
 31
0.0
  0
LINE
  5
319
330
1F
100
AcDbEntity
  8
_DEFAULT_CAD_LAYER
 62
     7
370
     0
100
AcDbLine
 10
538.4615758589815
 20
584.6646315446861
 30
0.0
 11
538.4615758589815
 21
584.6646315446861
 31
0.0
  0
LINE
  5
31A
330
1F
100
AcDbEntity
  8
_DEFAULT_CAD_LAYER
 62
     7
370
     0
100
AcDbLine
 10
539.1331969152836
 20
585.1799845069829
 30
0.0
 11
539.1331969152836
 21
585.1799845069829
 31
0.0
  0
LINE
  5
31B
330
1F
100
AcDbEntity
  8
_DEFAULT_CAD_LAYER
 62
     7
370
     0
100
AcDbLine
 10
537.8383979917564
 20
584.9953585204097
 30
0.0
 11
537.8383979917564
 21
584.9953585204097
 31
0.0
  0
LINE
  5
31C
330
1F
100
AcDbEntity
  8
_DEFAULT_CAD_LAYER
 62
     7
370
     0
100
AcDbLine
 10
538.4769826348273
 20
585.4853617512632
 30
0.0
 11
538.4769826348273
 21
585.4853617512632
 31
0.0
  0
LINE
  5
31D
330
1F
100
AcDbEntity
  8
_DEFAULT_CAD_LAYER
 62
     7
370
     0
100
AcDbLine
 10
539.1331969152836
 20
585.9888926786741
 30
0.0
 11
539.1331969152836
 21
585.9888926786741
 31
0.0
  0
LINE
  5
31E
330
1F
100
AcDbEntity
  8
_DEFAULT_CAD_LAYER
 62
     7
370
     0
100
AcDbLine
 10
537.868797630066
 20
585.8275931549665
 30
0.0
 11
537.868797630066
 21
585.8275931549665
 31
0.0
  0
LINE
  5
31F
330
1F
100
AcDbEntity
  8
_DEFAULT_CAD_LAYER
 62
     7
370
     0
100
AcDbLine
 10
538.4923894106726
 20
586.3060919578409
 30
0.0
 11
538.4923894106726
 21
586.3060919578409
 31
0.0
  0
LINE
  5
320
330
1F
100
AcDbEntity
  8
_DEFAULT_CAD_LAYER
 62
     7
370
     0
100
AcDbLine
 10
539.1331969152836
 20
586.7978008503651
 30
0.0
 11
539.1331969152836
 21
586.7978008503651
 31
0.0
  0
LINE
  5
321
330
1F
100
AcDbEntity
  8
_DEFAULT_CAD_LAYER
 62
     7
370
     0
100
AcDbLine
 10
537.8991972683264
 20
586.6598277895877
 30
0.0
 11
537.8991972683264
 21
586.6598277895877
 31
0.0
  0
LINE
  5
322
330
1F
100
AcDbEntity
  8
_DEFAULT_CAD_LAYER
 62
     7
370
     0
100
AcDbLine
 10
538.0416237519772
 20
586.7691154743954
 30
0.0
 11
538.0416237519772
 21
586.7691154743954
 31
0.0
  0
LINE
  5
323
330
1F
100
AcDbEntity
  8
_DEFAULT_CAD_LAYER
 62
     7
370
     0
100
AcDbLine
 10
538.1879822551155
 20
586.8814203038758
 30
0.0
 11
538.1879822551155
 21
586.8814203038758
 31
0.0
  0
LINE
  5
324
330
1F
100
AcDbEntity
  8
_DEFAULT_CAD_LAYER
 62
     7
370
     0
100
AcDbLine
 10
537.6791067526202
 20
578.973152017403
 30
0.0
 11
537.6791067526202
 21
578.973152017403
 31
0.0
  0
LINE
  5
325
330
1F
100
AcDbEntity
  8
_DEFAULT_CAD_LAYER
 62
     7
370
     0
100
AcDbLine
 10
537.7965179687951
 20
578.9886094971637
 30
0.0
 11
537.7965179687951
 21
578.9886094971637
 31
0.0
  0
LINE
  5
326
330
1F
100
AcDbEntity
  8
_DEFAULT_CAD_LAYER
 62
     7
370
     0
100
AcDbLine
 10
537.9923057821547
 20
579.0143854516339
 30
0.0
 11
537.9923057821547
 21
579.0143854516339
 31
0.0
  0
LINE
  5
327
330
1F
100
AcDbEntity
  8
_DEFAULT_CAD_LAYER
 62
     7
370
     0
100
AcDbLine
 10
537.6789688390614
 20
579.8725787357114
 30
0.0
 11
537.6789688390614
 21
579.8725787357114
 31
0.0
  0
LINE
  5
328
330
1F
100
AcDbEntity
  8
_DEFAULT_CAD_LAYER
 62
     7
370
     0
100
AcDbLine
 10
537.9832109081957
 20
579.9126329640849
 30
0.0
 11
537.9832109081957
 21
579.9126329640849
 31
0.0
  0
LINE
  5
329
330
1F
100
AcDbEntity
  8
_DEFAULT_CAD_LAYER
 62
     7
370
     0
100
AcDbLine
 10
538.4905465051552
 20
579.9794249627078
 30
0.0
 11
538.4905465051552
 21
579.9794249627078
 31
0.0
  0
LINE
  5
32A
330
1F
100
AcDbEntity
  8
_DEFAULT_CAD_LAYER
 62
     7
370
     0
100
AcDbLine
 10
537.6788309255026
 20
580.7720054547613
 30
0.0
 11
537.6788309255026
 21
580.7720054547613
 31
0.0
  0
LINE
  5
32B
330
1F
100
AcDbEntity
  8
_DEFAULT_CAD_LAYER
 62
     7
370
     0
100
AcDbLine
 10
538.1197597359821
 20
580.8300548339761
 30
0.0
 11
538.1197597359821
 21
580.8300548339761
 31
0.0
  0
LINE
  5
32C
330
1F
100
AcDbEntity
  8
_DEFAULT_CAD_LAYER
 62
     7
370
     0
100
AcDbLine
 10
538.8550258414155
 20
580.9268544532426
 30
0.0
 11
538.8550258414155
 21
580.9268544532426
 31
0.0
  0
LINE
  5
32D
330
1F
100
AcDbEntity
  8
_DEFAULT_CAD_LAYER
 62
     7
370
     0
100
AcDbLine
 10
537.6786930119437
 20
581.6714321738111
 30
0.0
 11
537.6786930119437
 21
581.6714321738111
 31
0.0
  0
LINE
  5
32E
330
1F
100
AcDbEntity
  8
_DEFAULT_CAD_LAYER
 62
     7
370
     0
100
AcDbLine
 10
538.2239535527443
 20
581.7432170858565
 30
0.0
 11
538.2239535527443
 21
581.7432170858565
 31
0.0
  0
LINE
  5
32F
330
1F
100
AcDbEntity
  8
_DEFAULT_CAD_LAYER
 62
     7
370
     0
100
AcDbLine
 10
539.1331969152836
 20
581.8629212454713
 30
0.0
 11
539.1331969152836
 21
581.8629212454713
 31
0.0
  0
LINE
  5
330
330
1F
100
AcDbEntity
  8
_DEFAULT_CAD_LAYER
 62
     7
370
     0
100
AcDbLine
 10
538.0972953722328
 20
582.6259870957299
 30
0.0
 11
538.0972953722328
 21
582.6259870957299
 31
0.0
  0
LINE
  5
331
330
1F
100
AcDbEntity
  8
_DEFAULT_CAD_LAYER
 62
     7
370
     0
100
AcDbLine
 10
538.4856313775766
 20
582.6771125007147
 30
0.0
 11
538.4856313775766
 21
582.6771125007147
 31
0.0
  0
LINE
  5
332
330
1F
100
AcDbEntity
  8
_DEFAULT_CAD_LAYER
 62
     7
370
     0
100
AcDbLine
 10
539.1331969152836
 20
582.7623661210687
 30
0.0
 11
539.1331969152836
 21
582.7623661210687
 31
0.0
  0
LINE
  5
333
330
1F
100
AcDbEntity
  8
_DEFAULT_CAD_LAYER
 62
     7
370
     0
100
AcDbLine
 10
537.6784171848259
 20
583.4702856119109
 30
0.0
 11
537.6784171848259
 21
583.4702856119109
 31
0.0
  0
LINE
  5
334
330
1F
100
AcDbEntity
  8
_DEFAULT_CAD_LAYER
 62
     7
370
     0
100
AcDbLine
 10
537.8473753208251
 20
583.4925293724798
 30
0.0
 11
537.8473753208251
 21
583.4925293724798
 31
0.0
  0
LINE
  5
335
330
1F
100
AcDbEntity
  8
_DEFAULT_CAD_LAYER
 62
     7
370
     0
100
AcDbLine
 10
538.1291196470856
 20
583.5296217166745
 30
0.0
 11
538.1291196470856
 21
583.5296217166745
 31
0.0
  0
LINE
  5
336
330
1F
100
AcDbEntity
  8
_DEFAULT_CAD_LAYER
 62
     7
370
     0
100
AcDbLine
 10
538.7549692158389
 20
583.6120163754292
 30
0.0
 11
538.7549692158389
 21
583.6120163754292
 31
0.0
  0
LINE
  5
337
330
1F
100
AcDbEntity
  8
_DEFAULT_CAD_LAYER
 62
     7
370
     0
100
AcDbLine
 10
538.8967582062097
 20
583.6306832501225
 30
0.0
 11
538.8967582062097
 21
583.6306832501225
 31
0.0
  0
LINE
  5
338
330
1F
100
AcDbEntity
  8
_DEFAULT_CAD_LAYER
 62
     7
370
     0
100
AcDbLine
 10
539.1331969152836
 20
583.6618109966661
 30
0.0
 11
539.1331969152836
 21
583.6618109966661
 31
0.0
  0
LINE
  5
339
330
1F
100
AcDbEntity
  8
_DEFAULT_CAD_LAYER
 62
     7
370
     0
100
AcDbLine
 10
537.678279271267
 20
584.3697123309607
 30
0.0
 11
537.678279271267
 21
584.3697123309607
 31
0.0
  0
LINE
  5
33A
330
1F
100
AcDbEntity
  8
_DEFAULT_CAD_LAYER
 62
     7
370
     0
100
AcDbLine
 10
538.0938361229089
 20
584.4244214282786
 30
0.0
 11
538.0938361229089
 21
584.4244214282786
 31
0.0
  0
LINE
  5
33B
330
1F
100
AcDbEntity
  8
_DEFAULT_CAD_LAYER
 62
     7
370
     0
100
AcDbLine
 10
538.7867934906991
 20
584.5156509963192
 30
0.0
 11
538.7867934906991
 21
584.5156509963192
 31
0.0
  0
LINE
  5
33C
330
1F
100
AcDbEntity
  8
_DEFAULT_CAD_LAYER
 62
     7
370
     0
100
AcDbLine
 10
537.6781413577082
 20
585.2691390492691
 30
0.0
 11
537.6781413577082
 21
585.2691390492691
 31
0.0
  0
LINE
  5
33D
330
1F
100
AcDbEntity
  8
_DEFAULT_CAD_LAYER
 62
     7
370
     0
100
AcDbLine
 10
538.2236087011761
 20
585.3409511875046
 30
0.0
 11
538.2236087011761
 21
585.3409511875046
 31
0.0
  0
LINE
  5
33E
330
1F
100
AcDbEntity
  8
_DEFAULT_CAD_LAYER
 62
     7
370
     0
100
AcDbLine
 10
539.1331969152836
 20
585.4607007478608
 30
0.0
 11
539.1331969152836
 21
585.4607007478608
 31
0.0
  0
LINE
  5
33F
330
1F
100
AcDbEntity
  8
_DEFAULT_CAD_LAYER
 62
     7
370
     0
100
AcDbLine
 10
537.6780034441493
 20
586.168565768319
 30
0.0
 11
537.6780034441493
 21
586.168565768319
 31
0.0
  0
LINE
  5
340
330
1F
100
AcDbEntity
  8
_DEFAULT_CAD_LAYER
 62
     7
370
     0
100
AcDbLine
 10
538.2235224882841
 20
586.2403847130327
 30
0.0
 11
538.2235224882841
 21
586.2403847130327
 31
0.0
  0
LINE
  5
341
330
1F
100
AcDbEntity
  8
_DEFAULT_CAD_LAYER
 62
     7
370
     0
100
AcDbLine
 10
539.1331969152836
 20
586.3601456234582
 30
0.0
 11
539.1331969152836
 21
586.3601456234582
 31
0.0
  0
LINE
  5
342
330
1F
100
AcDbEntity
  8
_DEFAULT_CAD_LAYER
 62
     7
370
     0
100
AcDbLine
 10
537.6792659083017
 20
577.9351911850206
 30
0.0
 11
537.6792659083017
 21
577.9351911850206
 31
0.0
  0
LINE
  5
343
330
1F
100
AcDbEntity
  8
_DEFAULT_CAD_LAYER
 62
     7
370
     0
100
AcDbLine
 10
537.6806103570683
 20
577.9343346766883
 30
0.0
 11
537.6806103570683
 21
577.9343346766883
 31
0.0
  0
LINE
  5
344
330
1F
100
AcDbEntity
  8
_DEFAULT_CAD_LAYER
 62
     7
370
     0
100
AcDbLine
 10
537.6848050372204
 20
577.9316623706918
 30
0.0
 11
537.6848050372204
 21
577.9316623706918
 31
0.0
  0
LINE
  5
345
330
1F
100
AcDbEntity
  8
_DEFAULT_CAD_LAYER
 62
     7
370
     0
100
AcDbLine
 10
538.0217446586438
 20
580.0984646098485
 30
0.0
 11
538.0217446586438
 21
580.0984646098485
 31
0.0
  0
LINE
  5
346
330
1F
100
AcDbEntity
  8
_DEFAULT_CAD_LAYER
 62
     7
370
     0
100
AcDbLine
 10
538.1220609649301
 20
580.034556074453
 30
0.0
 11
538.1220609649301
 21
580.034556074453
 31
0.0
  0
LINE
  5
347
330
1F
100
AcDbEntity
  8
_DEFAULT_CAD_LAYER
 62
     7
370
     0
100
AcDbLine
 10
538.4350478405437
 20
579.835161444019
 30
0.0
 11
538.4350478405437
 21
579.835161444019
 31
0.0
  0
LINE
  5
348
330
1F
100
AcDbEntity
  8
_DEFAULT_CAD_LAYER
 62
     7
370
     0
100
AcDbLine
 10
537.6787789800335
 20
581.1107766618109
 30
0.0
 11
537.6787789800335
 21
581.1107766618109
 31
0.0
  0
LINE
  5
349
330
1F
100
AcDbEntity
  8
_DEFAULT_CAD_LAYER
 62
     7
370
     0
100
AcDbLine
 10
537.9218715720643
 20
580.9559096007255
 30
0.0
 11
537.9218715720643
 21
580.9559096007255
 31
0.0
  0
LINE
  5
34A
330
1F
100
AcDbEntity
  8
_DEFAULT_CAD_LAYER
 62
     7
370
     0
100
AcDbLine
 10
538.6803204592007
 20
580.4727243701391
 30
0.0
 11
538.6803204592007
 21
580.4727243701391
 31
0.0
  0
LINE
  5
34B
330
1F
100
AcDbEntity
  8
_DEFAULT_CAD_LAYER
 62
     7
370
     0
100
AcDbLine
 10
537.6786572479665
 20
581.9046730306377
 30
0.0
 11
537.6786572479665
 21
581.9046730306377
 31
0.0
  0
LINE
  5
34C
330
1F
100
AcDbEntity
  8
_DEFAULT_CAD_LAYER
 62
     7
370
     0
100
AcDbLine
 10
537.98131157561
 20
581.7118609591867
 30
0.0
 11
537.98131157561
 21
581.7118609591867
 31
0.0
  0
LINE
  5
34D
330
1F
100
AcDbEntity
  8
_DEFAULT_CAD_LAYER
 62
     7
370
     0
100
AcDbLine
 10
538.9255930778579
 20
581.1102872962596
 30
0.0
 11
538.9255930778579
 21
581.1102872962596
 31
0.0
  0
LINE
  5
34E
330
1F
100
AcDbEntity
  8
_DEFAULT_CAD_LAYER
 62
     7
370
     0
100
AcDbLine
 10
537.6785355158995
 20
582.6985693994646
 30
0.0
 11
537.6785355158995
 21
582.6985693994646
 31
0.0
  0
LINE
  5
34F
330
1F
100
AcDbEntity
  8
_DEFAULT_CAD_LAYER
 62
     7
370
     0
100
AcDbLine
 10
537.8410613341283
 20
582.5950290340901
 30
0.0
 11
537.8410613341283
 21
582.5950290340901
 31
0.0
  0
LINE
  5
350
330
1F
100
AcDbEntity
  8
_DEFAULT_CAD_LAYER
 62
     7
370
     0
100
AcDbLine
 10
538.3481418870024
 20
582.2719830941217
 30
0.0
 11
538.3481418870024
 21
582.2719830941217
 31
0.0
  0
LINE
  5
351
330
1F
100
AcDbEntity
  8
_DEFAULT_CAD_LAYER
 62
     7
370
     0
100
AcDbLine
 10
537.6784137838324
 20
583.4924657690328
 30
0.0
 11
537.6784137838324
 21
583.4924657690328
 31
0.0
  0
LINE
  5
352
330
1F
100
AcDbEntity
  8
_DEFAULT_CAD_LAYER
 62
     7
370
     0
100
AcDbLine
 10
537.6916701402517
 20
583.4840205385901
 30
0.0
 11
537.6916701402517
 21
583.4840205385901
 31
0.0
  0
LINE
  5
353
330
1F
100
AcDbEntity
  8
_DEFAULT_CAD_LAYER
 62
     7
370
     0
100
AcDbLine
 10
537.7330299722802
 20
583.4576714196088
 30
0.0
 11
537.7330299722802
 21
583.4576714196088
 31
0.0
  0
LINE
  5
354
330
1F
100
AcDbEntity
  8
_DEFAULT_CAD_LAYER
 62
     7
370
     0
100
AcDbLine
 10
538.6850815085871
 20
584.4387853335313
 30
0.0
 11
538.6850815085871
 21
584.4387853335313
 31
0.0
  0
LINE
  5
355
330
1F
100
AcDbEntity
  8
_DEFAULT_CAD_LAYER
 62
     7
370
     0
100
AcDbLine
 10
538.7938473839989
 20
584.3694938288962
 30
0.0
 11
538.7938473839989
 21
584.3694938288962
 31
0.0
  0
LINE
  5
356
330
1F
100
AcDbEntity
  8
_DEFAULT_CAD_LAYER
 62
     7
370
     0
100
AcDbLine
 10
539.1331969152836
 20
584.1533043344347
 30
0.0
 11
539.1331969152836
 21
584.1533043344347
 31
0.0
  0
LINE
  5
357
330
1F
100
AcDbEntity
  8
_DEFAULT_CAD_LAYER
 62
     7
370
     0
100
AcDbLine
 10
538.0699695936798
 20
585.6244736587286
 30
0.0
 11
538.0699695936798
 21
585.6244736587286
 31
0.0
  0
LINE
  5
358
330
1F
100
AcDbEntity
  8
_DEFAULT_CAD_LAYER
 62
     7
370
     0
100
AcDbLine
 10
538.3280344775643
 20
585.4600681958556
 30
0.0
 11
538.3280344775643
 21
585.4600681958556
 31
0.0
  0
LINE
  5
359
330
1F
100
AcDbEntity
  8
_DEFAULT_CAD_LAYER
 62
     7
370
     0
100
AcDbLine
 10
539.1331969152836
 20
584.9471231516919
 30
0.0
 11
539.1331969152836
 21
584.9471231516919
 31
0.0
  0
LINE
  5
35A
330
1F
100
AcDbEntity
  8
_DEFAULT_CAD_LAYER
 62
     7
370
     0
100
AcDbLine
 10
537.6779268555644
 20
586.6680512450818
 30
0.0
 11
537.6779268555644
 21
586.6680512450818
 31
0.0
  0
LINE
  5
35B
330
1F
100
AcDbEntity
  8
_DEFAULT_CAD_LAYER
 62
     7
370
     0
100
AcDbLine
 10
538.0311477438457
 20
586.4430247217487
 30
0.0
 11
538.0311477438457
 21
586.4430247217487
 31
0.0
  0
LINE
  5
35C
330
1F
100
AcDbEntity
  8
_DEFAULT_CAD_LAYER
 62
     7
370
     0
100
AcDbLine
 10
539.1331969152836
 20
585.7409419689492
 30
0.0
 11
539.1331969152836
 21
585.7409419689492
 31
0.0
  0
LINE
  5
35D
330
1F
100
AcDbEntity
  8
_DEFAULT_CAD_LAYER
 62
     7
370
     0
100
AcDbLine
 10
538.5890504702273
 20
586.8814203038758
 30
0.0
 11
538.5890504702273
 21
586.8814203038758
 31
0.0
  0
LINE
  5
35E
330
1F
100
AcDbEntity
  8
_DEFAULT_CAD_LAYER
 62
     7
370
     0
100
AcDbLine
 10
538.6915816029282
 20
586.8161007684251
 30
0.0
 11
538.6915816029282
 21
586.8161007684251
 31
0.0
  0
LINE
  5
35F
330
1F
100
AcDbEntity
  8
_DEFAULT_CAD_LAYER
 62
     7
370
     0
100
AcDbLine
 10
539.0114787369548
 20
586.6123038178193
 30
0.0
 11
539.0114787369548
 21
586.6123038178193
 31
0.0
  0
LINE
  5
360
330
1F
100
AcDbEntity
  8
_DEFAULT_CAD_LAYER
 62
     7
370
     0
100
AcDbLine
 10
538.7150467036956
 20
581.090492368493
 30
0.0
 11
538.7150467036956
 21
581.090492368493
 31
0.0
  0
LINE
  5
361
330
1F
100
AcDbEntity
  8
_DEFAULT_CAD_LAYER
 62
     7
370
     0
100
AcDbLine
 10
538.7728912326075
 20
581.0374876234016
 30
0.0
 11
538.7728912326075
 21
581.0374876234016
 31
0.0
  0
LINE
  5
362
330
1F
100
AcDbEntity
  8
_DEFAULT_CAD_LAYER
 62
     7
370
     0
100
AcDbLine
 10
538.8650865125347
 20
580.953006214302
 30
0.0
 11
538.8650865125347
 21
580.953006214302
 31
0.0
  0
LINE
  5
363
330
1F
100
AcDbEntity
  8
_DEFAULT_CAD_LAYER
 62
     7
370
     0
100
AcDbLine
 10
538.8372867759364
 20
582.5647216034434
 30
0.0
 11
538.8372867759364
 21
582.5647216034434
 31
0.0
  0
LINE
  5
364
330
1F
100
AcDbEntity
  8
_DEFAULT_CAD_LAYER
 62
     7
370
     0
100
AcDbLine
 10
538.9513683836325
 20
582.460185069939
 30
0.0
 11
538.9513683836325
 21
582.460185069939
 31
0.0
  0
LINE
  5
365
330
1F
100
AcDbEntity
  8
_DEFAULT_CAD_LAYER
 62
     7
370
     0
100
AcDbLine
 10
539.1331969152836
 20
582.2935699180766
 30
0.0
 11
539.1331969152836
 21
582.2935699180766
 31
0.0
  0
LINE
  5
366
330
1F
100
AcDbEntity
  8
_DEFAULT_CAD_LAYER
 62
     7
370
     0
100
AcDbLine
 10
538.9595268481876
 20
584.0389508384051
 30
0.0
 11
538.9595268481876
 21
584.0389508384051
 31
0.0
  0
LINE
  5
367
330
1F
100
AcDbEntity
  8
_DEFAULT_CAD_LAYER
 62
     7
370
     0
100
AcDbLine
 10
539.0264815003895
 20
583.9775982033611
 30
0.0
 11
539.0264815003895
 21
583.9775982033611
 31
0.0
  0
LINE
  5
368
330
1F
100
AcDbEntity
  8
_DEFAULT_CAD_LAYER
 62
     7
370
     0
100
AcDbLine
 10
539.1331969152836
 20
583.8798115419679
 30
0.0
 11
539.1331969152836
 21
583.8798115419679
 31
0.0
  0
LINE
  5
369
330
1F
100
AcDbEntity
  8
_DEFAULT_CAD_LAYER
 62
     7
370
     0
100
AcDbLine
 10
539.0817669204673
 20
585.5131800733978
 30
0.0
 11
539.0817669204673
 21
585.5131800733978
 31
0.0
  0
LINE
  5
36A
330
1F
100
AcDbEntity
  8
_DEFAULT_CAD_LAYER
 62
     7
370
     0
100
AcDbLine
 10
539.101594617164
 20
585.4950113368023
 30
0.0
 11
539.101594617164
 21
585.4950113368023
 31
0.0
  0
LINE
  5
36B
330
1F
100
AcDbEntity
  8
_DEFAULT_CAD_LAYER
 62
     7
370
     0
100
AcDbLine
 10
539.1331969152836
 20
585.4660531658593
 30
0.0
 11
539.1331969152836
 21
585.4660531658593
 31
0.0
  0
LINE
  5
36C
330
1F
100
AcDbEntity
  8
_DEFAULT_CAD_LAYER
 62
     7
370
     0
100
AcDbLine
 10
537.6779066874595
 20
586.7995809691059
 30
0.0
 11
537.6779066874595
 21
586.7995809691059
 31
0.0
  0
LINE
  5
36D
330
1F
100
AcDbEntity
  8
_DEFAULT_CAD_LAYER
 62
     7
370
     0
100
AcDbLine
 10
537.6968411669242
 20
586.7822307153054
 30
0.0
 11
537.6968411669242
 21
586.7822307153054
 31
0.0
  0
LINE
  5
36E
330
1F
100
AcDbEntity
  8
_DEFAULT_CAD_LAYER
 62
     7
370
     0
100
AcDbLine
 10
537.7270198141939
 20
586.7545770800174
 30
0.0
 11
537.7270198141939
 21
586.7545770800174
 31
0.0
  0
LINE
  5
36F
330
1F
100
AcDbEntity
  8
_DEFAULT_CAD_LAYER
 62
     7
370
     0
100
AcDbLine
 10
539.3188544577579
 20
581.6160444719136
 30
0.0
 11
539.4071391645246
 21
581.6499337956839
 31
0.0
  0
LINE
  5
370
330
1F
100
AcDbEntity
  8
_DEFAULT_CAD_LAYER
 62
     7
370
     0
100
AcDbLine
 10
539.3188547193059
 20
581.6160443277785
 30
0.0
 11
539.4432103551892
 21
581.5321653922579
 31
0.0
  0
LINE
  5
371
330
1F
100
AcDbEntity
  8
_DEFAULT_CAD_LAYER
 62
     7
370
     0
100
AcDbLine
 10
539.4436601998435
 20
581.5317426272503
 30
0.0
 11
539.4833179203397
 21
581.6499337956839
 31
0.0
  0
LINE
  5
372
330
1F
100
AcDbEntity
  8
_DEFAULT_CAD_LAYER
 62
     7
370
     0
100
AcDbLine
 10
539.267443480161
 20
579.6206383174173
 30
0.0
 11
539.267443480161
 21
579.6206383174173
 31
0.0
  0
LINE
  5
373
330
1F
100
AcDbEntity
  8
_DEFAULT_CAD_LAYER
 62
     7
370
     0
100
AcDbLine
 10
539.5042384852109
 20
579.8023375154107
 30
0.0
 11
539.5042384852109
 21
579.8023375154107
 31
0.0
  0
LINE
  5
374
330
1F
100
AcDbEntity
  8
_DEFAULT_CAD_LAYER
 62
     7
370
     0
100
AcDbLine
 10
539.7475707756763
 20
579.9890529489315
 30
0.0
 11
539.7475707756763
 21
579.9890529489315
 31
0.0
  0
LINE
  5
375
330
1F
100
AcDbEntity
  8
_DEFAULT_CAD_LAYER
 62
     7
370
     0
100
AcDbLine
 10
539.1452533108903
 20
580.3357866745553
 30
0.0
 11
539.1452533108903
 21
580.3357866745553
 31
0.0
  0
LINE
  5
376
330
1F
100
AcDbEntity
  8
_DEFAULT_CAD_LAYER
 62
     7
370
     0
100
AcDbLine
 10
539.4423115461706
 20
580.5637274754902
 30
0.0
 11
539.4423115461706
 21
580.5637274754902
 31
0.0
  0
LINE
  5
377
330
1F
100
AcDbEntity
  8
_DEFAULT_CAD_LAYER
 62
     7
370
     0
100
AcDbLine
 10
539.7475707756763
 20
580.7979611206227
 30
0.0
 11
539.7475707756763
 21
580.7979611206227
 31
0.0
  0
LINE
  5
378
330
1F
100
AcDbEntity
  8
_DEFAULT_CAD_LAYER
 62
     7
370
     0
100
AcDbLine
 10
539.137884012631
 20
581.139040184816
 30
0.0
 11
539.137884012631
 21
581.139040184816
 31
0.0
  0
LINE
  5
379
330
1F
100
AcDbEntity
  8
_DEFAULT_CAD_LAYER
 62
     7
370
     0
100
AcDbLine
 10
539.4385767278394
 20
581.369769820284
 30
0.0
 11
539.4385767278394
 21
581.369769820284
 31
0.0
  0
LINE
  5
37A
330
1F
100
AcDbEntity
  8
_DEFAULT_CAD_LAYER
 62
     7
370
     0
100
AcDbLine
 10
539.7475707756763
 20
581.6068692923138
 30
0.0
 11
539.7475707756763
 21
581.6068692923138
 31
0.0
  0
LINE
  5
37B
330
1F
100
AcDbEntity
  8
_DEFAULT_CAD_LAYER
 62
     7
370
     0
100
AcDbLine
 10
539.2758291945161
 20
580.0828093900745
 30
0.0
 11
539.2758291945161
 21
580.0828093900745
 31
0.0
  0
LINE
  5
37C
330
1F
100
AcDbEntity
  8
_DEFAULT_CAD_LAYER
 62
     7
370
     0
100
AcDbLine
 10
539.4526744192493
 20
580.1060915055972
 30
0.0
 11
539.4526744192493
 21
580.1060915055972
 31
0.0
  0
LINE
  5
37D
330
1F
100
AcDbEntity
  8
_DEFAULT_CAD_LAYER
 62
     7
370
     0
100
AcDbLine
 10
539.7475707756763
 20
580.1449153474504
 30
0.0
 11
539.7475707756763
 21
580.1449153474504
 31
0.0
  0
LINE
  5
37E
330
1F
100
AcDbEntity
  8
_DEFAULT_CAD_LAYER
 62
     7
370
     0
100
AcDbLine
 10
539.1394870924238
 20
580.964304487407
 30
0.0
 11
539.1394870924238
 21
580.964304487407
 31
0.0
  0
LINE
  5
37F
330
1F
100
AcDbEntity
  8
_DEFAULT_CAD_LAYER
 62
     7
370
     0
100
AcDbLine
 10
539.202528854933
 20
580.9726040928936
 30
0.0
 11
539.202528854933
 21
580.9726040928936
 31
0.0
  0
LINE
  5
380
330
1F
100
AcDbEntity
  8
_DEFAULT_CAD_LAYER
 62
     7
370
     0
100
AcDbLine
 10
539.307653469379
 20
580.9864440109429
 30
0.0
 11
539.307653469379
 21
580.9864440109429
 31
0.0
  0
LINE
  5
381
330
1F
100
AcDbEntity
  8
_DEFAULT_CAD_LAYER
 62
     7
370
     0
100
AcDbLine
 10
539.1467229758199
 20
580.1755931972319
 30
0.0
 11
539.1467229758199
 21
580.1755931972319
 31
0.0
  0
LINE
  5
382
330
1F
100
AcDbEntity
  8
_DEFAULT_CAD_LAYER
 62
     7
370
     0
100
AcDbLine
 10
539.2514906313935
 20
580.1088488395725
 30
0.0
 11
539.2514906313935
 21
580.1088488395725
 31
0.0
  0
LINE
  5
383
330
1F
100
AcDbEntity
  8
_DEFAULT_CAD_LAYER
 62
     7
370
     0
100
AcDbLine
 10
539.5783657167833
 20
579.9006064436751
 30
0.0
 11
539.5783657167833
 21
579.9006064436751
 31
0.0
  0
LINE
  5
384
330
1F
100
AcDbEntity
  8
_DEFAULT_CAD_LAYER
 62
     7
370
     0
100
AcDbLine
 10
539.1419179876874
 20
580.6993369036732
 30
0.0
 11
539.1419179876874
 21
580.6993369036732
 31
0.0
  0
LINE
  5
385
330
1F
100
AcDbEntity
  8
_DEFAULT_CAD_LAYER
 62
     7
370
     0
100
AcDbLine
 10
539.3754140210165
 20
580.4853772093232
 30
0.0
 11
539.3754140210165
 21
580.4853772093232
 31
0.0
  0
LINE
  5
386
330
1F
100
AcDbEntity
  8
_DEFAULT_CAD_LAYER
 62
     7
370
     0
100
AcDbLine
 10
539.7475707756763
 20
580.1443583734055
 30
0.0
 11
539.7475707756763
 21
580.1443583734055
 31
0.0
  0
LINE
  5
387
330
1F
100
AcDbEntity
  8
_DEFAULT_CAD_LAYER
 62
     7
370
     0
100
AcDbLine
 10
539.0481899486656
 20
578.1841495432013
 30
0.0
 11
539.1518143049925
 21
578.3076442421342
 31
0.0
  0
LINE
  5
388
330
1F
100
AcDbEntity
  8
_DEFAULT_CAD_LAYER
 62
     7
370
     0
100
AcDbLine
 10
538.7013116139574
 20
580.0646298776765
 30
0.0
 11
538.8218342907733
 21
580.2082632107615
 31
0.0
  0
LINE
  5
389
330
1F
100
AcDbEntity
  8
_DEFAULT_CAD_LAYER
 62
     7
370
     0
100
AcDbLine
 10
539.0481901998561
 20
578.1841496543466
 30
0.0
 11
539.1518143049925
 21
578.1750837198791
 31
0.0
  0
LINE
  5
38A
330
1F
100
AcDbEntity
  8
_DEFAULT_CAD_LAYER
 62
     7
370
     0
100
AcDbLine
 10
538.701311865824
 20
580.0646299885968
 30
0.0
 11
538.8507410705377
 21
580.0515566271849
 31
0.0
  0
LINE
  5
38B
330
1F
100
AcDbEntity
  8
_DEFAULT_CAD_LAYER
 62
     7
370
     0
100
AcDbLine
 10
538.8511888368234
 20
580.0511314166777
 30
0.0
 11
538.8222824321965
 21
580.207838128896
 31
0.0
  0
LINE
  5
38C
330
1F
100
AcDbEntity
  8
_DEFAULT_CAD_LAYER
 62
     7
370
     0
100
AcDbLine
 10
538.1022777991163
 20
577.9902942456243
 30
0.0
 11
538.2773241290845
 21
578.0574882361641
 31
0.0
  0
LINE
  5
38D
330
1F
100
AcDbEntity
  8
_DEFAULT_CAD_LAYER
 62
     7
370
     0
100
AcDbLine
 10
538.7105661284382
 20
579.8031693587659
 30
0.0
 11
538.8856124584061
 21
579.8703633493063
 31
0.0
  0
LINE
  5
38E
330
1F
100
AcDbEntity
  8
_DEFAULT_CAD_LAYER
 62
     7
370
     0
100
AcDbLine
 10
538.1022780596986
 20
577.990294102545
 30
0.0
 11
538.2266336955819
 21
577.9064151670244
 31
0.0
  0
LINE
  5
38F
330
1F
100
AcDbEntity
  8
_DEFAULT_CAD_LAYER
 62
     7
370
     0
100
AcDbLine
 10
538.7105663895024
 20
579.803169215162
 30
0.0
 11
538.8349220253857
 21
579.7192902796414
 31
0.0
  0
LINE
  5
390
330
1F
100
AcDbEntity
  8
_DEFAULT_CAD_LAYER
 62
     7
370
     0
100
AcDbLine
 10
538.2270807130503
 20
577.9059933598389
 30
0.0
 11
538.2777715235417
 21
578.057066241636
 31
0.0
  0
LINE
  5
391
330
1F
100
AcDbEntity
  8
_DEFAULT_CAD_LAYER
 62
     7
370
     0
100
AcDbLine
 10
538.8353704564423
 20
579.7188679935463
 30
0.0
 11
538.8860612669337
 21
579.8699408753432
 31
0.0
  0
LINE
  5
392
330
1F
100
AcDbEntity
  8
_DEFAULT_CAD_LAYER
 62
     7
370
     0
100
AcDbLine
 10
539.0951332508544
 20
577.8706036847836
 30
0.0
 11
539.0951332508544
 21
577.8706036847836
 31
0.0
  0
LINE
  5
393
330
1F
100
AcDbEntity
  8
_DEFAULT_CAD_LAYER
 62
     7
370
     0
100
AcDbLine
 10
539.1230879008529
 20
577.892054042167
 30
0.0
 11
539.1230879008529
 21
577.892054042167
 31
0.0
  0
LINE
  5
394
330
1F
100
AcDbEntity
  8
_DEFAULT_CAD_LAYER
 62
     7
370
     0
100
AcDbLine
 10
539.1518143049925
 20
577.914096587331
 30
0.0
 11
539.1518143049925
 21
577.914096587331
 31
0.0
  0
LINE
  5
395
330
1F
100
AcDbEntity
  8
_DEFAULT_CAD_LAYER
 62
     7
370
     0
100
AcDbLine
 10
538.040943597208
 20
577.8706036847836
 30
0.0
 11
538.040943597208
 21
577.8706036847836
 31
0.0
  0
LINE
  5
396
330
1F
100
AcDbEntity
  8
_DEFAULT_CAD_LAYER
 62
     7
370
     0
100
AcDbLine
 10
538.5888162912137
 20
578.291001188871
 30
0.0
 11
538.5888162912137
 21
578.291001188871
 31
0.0
  0
LINE
  5
397
330
1F
100
AcDbEntity
  8
_DEFAULT_CAD_LAYER
 62
     7
370
     0
100
AcDbLine
 10
539.1518143049925
 20
578.723004759022
 30
0.0
 11
539.1518143049925
 21
578.723004759022
 31
0.0
  0
LINE
  5
398
330
1F
100
AcDbEntity
  8
_DEFAULT_CAD_LAYER
 62
     7
370
     0
100
AcDbLine
 10
537.9693238616163
 20
578.6245561004832
 30
0.0
 11
537.9693238616163
 21
578.6245561004832
 31
0.0
  0
LINE
  5
399
330
1F
100
AcDbEntity
  8
_DEFAULT_CAD_LAYER
 62
     7
370
     0
100
AcDbLine
 10
538.5525188457927
 20
579.0720573510959
 30
0.0
 11
538.5525188457927
 21
579.0720573510959
 31
0.0
  0
LINE
  5
39A
330
1F
100
AcDbEntity
  8
_DEFAULT_CAD_LAYER
 62
     7
370
     0
100
AcDbLine
 10
539.1518143049925
 20
579.5319129307131
 30
0.0
 11
539.1518143049925
 21
579.5319129307131
 31
0.0
  0
LINE
  5
39B
330
1F
100
AcDbEntity
  8
_DEFAULT_CAD_LAYER
 62
     7
370
     0
100
AcDbLine
 10
538.4108487681433
 20
579.7722582488174
 30
0.0
 11
538.4108487681433
 21
579.7722582488174
 31
0.0
  0
LINE
  5
39C
330
1F
100
AcDbEntity
  8
_DEFAULT_CAD_LAYER
 62
     7
370
     0
100
AcDbLine
 10
538.7730513111622
 20
580.0501860351934
 30
0.0
 11
538.7730513111622
 21
580.0501860351934
 31
0.0
  0
LINE
  5
39D
330
1F
100
AcDbEntity
  8
_DEFAULT_CAD_LAYER
 62
     7
370
     0
100
AcDbLine
 10
539.1452533108902
 20
580.3357866745677
 30
0.0
 11
539.1452533108902
 21
580.3357866745677
 31
0.0
  0
LINE
  5
39E
330
1F
100
AcDbEntity
  8
_DEFAULT_CAD_LAYER
 62
     7
370
     0
100
AcDbLine
 10
538.8523736746703
 20
580.9199603971516
 30
0.0
 11
538.8523736746703
 21
580.9199603971516
 31
0.0
  0
LINE
  5
39F
330
1F
100
AcDbEntity
  8
_DEFAULT_CAD_LAYER
 62
     7
370
     0
100
AcDbLine
 10
538.9931851272803
 20
581.0280088249558
 30
0.0
 11
538.9931851272803
 21
581.0280088249558
 31
0.0
  0
LINE
  5
3A0
330
1F
100
AcDbEntity
  8
_DEFAULT_CAD_LAYER
 62
     7
370
     0
100
AcDbLine
 10
539.137884012631
 20
581.139040184816
 30
0.0
 11
539.137884012631
 21
581.139040184816
 31
0.0
  0
LINE
  5
3A1
330
1F
100
AcDbEntity
  8
_DEFAULT_CAD_LAYER
 62
     7
370
     0
100
AcDbLine
 10
537.9604815073052
 20
578.1107508306632
 30
0.0
 11
537.9604815073052
 21
578.1107508306632
 31
0.0
  0
LINE
  5
3A2
330
1F
100
AcDbEntity
  8
_DEFAULT_CAD_LAYER
 62
     7
370
     0
100
AcDbLine
 10
538.4070851664972
 20
578.1695473178274
 30
0.0
 11
538.4070851664972
 21
578.1695473178274
 31
0.0
  0
LINE
  5
3A3
330
1F
100
AcDbEntity
  8
_DEFAULT_CAD_LAYER
 62
     7
370
     0
100
AcDbLine
 10
539.1518143049925
 20
578.2675927689364
 30
0.0
 11
539.1518143049925
 21
578.2675927689364
 31
0.0
  0
LINE
  5
3A4
330
1F
100
AcDbEntity
  8
_DEFAULT_CAD_LAYER
 62
     7
370
     0
100
AcDbLine
 10
538.6181553509107
 20
579.096780110369
 30
0.0
 11
538.6181553509107
 21
579.096780110369
 31
0.0
  0
LINE
  5
3A5
330
1F
100
AcDbEntity
  8
_DEFAULT_CAD_LAYER
 62
     7
370
     0
100
AcDbLine
 10
538.8182119951298
 20
579.1231180672394
 30
0.0
 11
538.8182119951298
 21
579.1231180672394
 31
0.0
  0
LINE
  5
3A6
330
1F
100
AcDbEntity
  8
_DEFAULT_CAD_LAYER
 62
     7
370
     0
100
AcDbLine
 10
539.1518143049925
 20
579.1670376445337
 30
0.0
 11
539.1518143049925
 21
579.1670376445337
 31
0.0
  0
LINE
  5
3A7
330
1F
100
AcDbEntity
  8
_DEFAULT_CAD_LAYER
 62
     7
370
     0
100
AcDbLine
 10
538.4905465051554
 20
579.9794249627083
 30
0.0
 11
538.4905465051554
 21
579.9794249627083
 31
0.0
  0
LINE
  5
3A8
330
1F
100
AcDbEntity
  8
_DEFAULT_CAD_LAYER
 62
     7
370
     0
100
AcDbLine
 10
538.5503143678407
 20
579.9872935511063
 30
0.0
 11
538.5503143678407
 21
579.9872935511063
 31
0.0
  0
LINE
  5
3A9
330
1F
100
AcDbEntity
  8
_DEFAULT_CAD_LAYER
 62
     7
370
     0
100
AcDbLine
 10
538.6499796257738
 20
580.0004147312358
 30
0.0
 11
538.6499796257738
 21
580.0004147312358
 31
0.0
  0
LINE
  5
3AA
330
1F
100
AcDbEntity
  8
_DEFAULT_CAD_LAYER
 62
     7
370
     0
100
AcDbLine
 10
538.8550258414158
 20
580.9268544532435
 30
0.0
 11
538.8550258414158
 21
580.9268544532435
 31
0.0
  0
LINE
  5
3AB
330
1F
100
AcDbEntity
  8
_DEFAULT_CAD_LAYER
 62
     7
370
     0
100
AcDbLine
 10
538.9616639158859
 20
580.940893622086
 30
0.0
 11
538.9616639158859
 21
580.940893622086
 31
0.0
  0
LINE
  5
3AC
330
1F
100
AcDbEntity
  8
_DEFAULT_CAD_LAYER
 62
     7
370
     0
100
AcDbLine
 10
539.1394870924238
 20
580.964304487407
 30
0.0
 11
539.1394870924238
 21
580.964304487407
 31
0.0
  0
LINE
  5
3AD
330
1F
100
AcDbEntity
  8
_DEFAULT_CAD_LAYER
 62
     7
370
     0
100
AcDbLine
 10
538.6368565735233
 20
578.9127762846081
 30
0.0
 11
538.6368565735233
 21
578.9127762846081
 31
0.0
  0
LINE
  5
3AE
330
1F
100
AcDbEntity
  8
_DEFAULT_CAD_LAYER
 62
     7
370
     0
100
AcDbLine
 10
538.7618463141712
 20
578.8331490379353
 30
0.0
 11
538.7618463141712
 21
578.8331490379353
 31
0.0
  0
LINE
  5
3AF
330
1F
100
AcDbEntity
  8
_DEFAULT_CAD_LAYER
 62
     7
370
     0
100
AcDbLine
 10
539.1518143049925
 20
578.5847120283162
 30
0.0
 11
539.1518143049925
 21
578.5847120283162
 31
0.0
  0
LINE
  5
3B0
330
1F
100
AcDbEntity
  8
_DEFAULT_CAD_LAYER
 62
     7
370
     0
100
AcDbLine
 10
538.4350478405433
 20
579.8351614440181
 30
0.0
 11
538.4350478405433
 21
579.8351614440181
 31
0.0
  0
LINE
  5
3B1
330
1F
100
AcDbEntity
  8
_DEFAULT_CAD_LAYER
 62
     7
370
     0
100
AcDbLine
 10
538.6090202833708
 20
579.7243287744927
 30
0.0
 11
538.6090202833708
 21
579.7243287744927
 31
0.0
  0
LINE
  5
3B2
330
1F
100
AcDbEntity
  8
_DEFAULT_CAD_LAYER
 62
     7
370
     0
100
AcDbLine
 10
539.1518143049925
 20
579.3785308455734
 30
0.0
 11
539.1518143049925
 21
579.3785308455734
 31
0.0
  0
LINE
  5
3B3
330
1F
100
AcDbEntity
  8
_DEFAULT_CAD_LAYER
 62
     7
370
     0
100
AcDbLine
 10
538.6803204592005
 20
580.4727243701385
 30
0.0
 11
538.6803204592005
 21
580.4727243701385
 31
0.0
  0
LINE
  5
3B4
330
1F
100
AcDbEntity
  8
_DEFAULT_CAD_LAYER
 62
     7
370
     0
100
AcDbLine
 10
538.7935249535257
 20
580.4006051534136
 30
0.0
 11
538.7935249535257
 21
580.4006051534136
 31
0.0
  0
LINE
  5
3B5
330
1F
100
AcDbEntity
  8
_DEFAULT_CAD_LAYER
 62
     7
370
     0
100
AcDbLine
 10
539.1467229758199
 20
580.1755931972319
 30
0.0
 11
539.1467229758199
 21
580.1755931972319
 31
0.0
  0
LINE
  5
3B6
330
1F
100
AcDbEntity
  8
_DEFAULT_CAD_LAYER
 62
     7
370
     0
100
AcDbLine
 10
538.9255930778576
 20
581.1102872962587
 30
0.0
 11
538.9255930778576
 21
581.1102872962587
 31
0.0
  0
LINE
  5
3B7
330
1F
100
AcDbEntity
  8
_DEFAULT_CAD_LAYER
 62
     7
370
     0
100
AcDbLine
 10
538.9347340303019
 20
581.1044638673012
 30
0.0
 11
538.9347340303019
 21
581.1044638673012
 31
0.0
  0
LINE
  5
3B8
330
1F
100
AcDbEntity
  8
_DEFAULT_CAD_LAYER
 62
     7
370
     0
100
AcDbLine
 10
538.9632538019281
 20
581.086294768954
 30
0.0
 11
538.9632538019281
 21
581.086294768954
 31
0.0
  0
LINE
  5
3B9
330
1F
100
AcDbEntity
  8
_DEFAULT_CAD_LAYER
 62
     7
370
     0
100
AcDbLine
 10
538.4705665591775
 20
578.1420338985527
 30
0.0
 11
538.4705665591775
 21
578.1420338985527
 31
0.0
  0
LINE
  5
3BA
330
1F
100
AcDbEntity
  8
_DEFAULT_CAD_LAYER
 62
     7
370
     0
100
AcDbLine
 10
538.5847653520759
 20
578.0373899845848
 30
0.0
 11
538.5847653520759
 21
578.0373899845848
 31
0.0
  0
LINE
  5
3BB
330
1F
100
AcDbEntity
  8
_DEFAULT_CAD_LAYER
 62
     7
370
     0
100
AcDbLine
 10
538.7667806589108
 20
577.8706036847836
 30
0.0
 11
538.7667806589108
 21
577.8706036847836
 31
0.0
  0
LINE
  5
3BC
330
1F
100
AcDbEntity
  8
_DEFAULT_CAD_LAYER
 62
     7
370
     0
100
AcDbLine
 10
538.5928066314347
 20
579.6162631335208
 30
0.0
 11
538.5928066314347
 21
579.6162631335208
 31
0.0
  0
LINE
  5
3BD
330
1F
100
AcDbEntity
  8
_DEFAULT_CAD_LAYER
 62
     7
370
     0
100
AcDbLine
 10
538.8083196728419
 20
579.418781815272
 30
0.0
 11
538.8083196728419
 21
579.418781815272
 31
0.0
  0
LINE
  5
3BE
330
1F
100
AcDbEntity
  8
_DEFAULT_CAD_LAYER
 62
     7
370
     0
100
AcDbLine
 10
539.1518143049925
 20
579.1040269757248
 30
0.0
 11
539.1518143049925
 21
579.1040269757248
 31
0.0
  0
LINE
  5
3BF
330
1F
100
AcDbEntity
  8
_DEFAULT_CAD_LAYER
 62
     7
370
     0
100
AcDbLine
 10
538.8650865125347
 20
580.953006214302
 30
0.0
 11
538.8650865125347
 21
580.953006214302
 31
0.0
  0
LINE
  5
3C0
330
1F
100
AcDbEntity
  8
_DEFAULT_CAD_LAYER
 62
     7
370
     0
100
AcDbLine
 10
538.971812763335
 20
580.8552096236089
 30
0.0
 11
538.971812763335
 21
580.8552096236089
 31
0.0
  0
LINE
  5
3C1
330
1F
100
AcDbEntity
  8
_DEFAULT_CAD_LAYER
 62
     7
370
     0
100
AcDbLine
 10
539.1419179876874
 20
580.6993369036732
 30
0.0
 11
539.1419179876874
 21
580.6993369036732
 31
0.0
  0
LWPOLYLINE
  5
3C2
330
1F
100
AcDbEntity
  8
_DEFAULT_CAD_LAYER
 62
     7
370
    15
100
AcDbPolyline
 90
        8
 70
     1
 43
0.0
 10
539.1331969152836
 20
586.8814203038758
 10
539.1331969152836
 20
581.6499337956839
 10
539.7475707756763
 20
581.6499337956839
 10
539.7475707756763
 20
579.6206383174173
 10
539.1518143049925
 20
579.6206383174173
 10
539.1518143049925
 20
577.8706036847836
 10
537.6792758118233
 20
577.8706036847836
 10
537.6778941386285
 20
586.8814203038759
  0
INSERT
  5
3C3
330
1F
100
AcDbEntity
  8
_DEFAULT_CAD_LAYER
100
AcDbBlockReference
  2
block77
 10
530.5293592922981
 20
578.4440387423541
 30
0.0
 41
-1.0
 42
0.6664599875653169
  0
LINE
  5
3C4
330
1F
100
AcDbEntity
  8
_DEFAULT_CAD_LAYER
 62
   253
370
    13
100
AcDbLine
 10
536.9688602622564
 20
586.4663349453145
 30
0.0
 11
537.4164974221637
 21
586.913972105222
 31
0.0
1001
CHIEFARC-LNWT
1070
    12
  0
LINE
  5
3C5
330
1F
100
AcDbEntity
  8
_DEFAULT_CAD_LAYER
 62
   253
370
    13
100
AcDbLine
 10
536.2617534810696
 20
586.4663349453145
 30
0.0
 11
537.4164974221637
 21
587.6210788864087
 31
0.0
1001
CHIEFARC-LNWT
1070
    12
  0
LINE
  5
3C6
330
1F
100
AcDbEntity
  8
_DEFAULT_CAD_LAYER
 62
   253
370
    13
100
AcDbLine
 10
535.554646699883
 20
586.4663349453145
 30
0.0
 11
537.4164974221637
 21
588.3281856675952
 31
0.0
1001
CHIEFARC-LNWT
1070
    12
  0
LINE
  5
3C7
330
1F
100
AcDbEntity
  8
_DEFAULT_CAD_LAYER
 62
   253
370
    13
100
AcDbLine
 10
534.8475399186966
 20
586.4663349453145
 30
0.0
 11
536.8475399186966
 21
588.4663349453145
 31
0.0
1001
CHIEFARC-LNWT
1070
    12
  0
LINE
  5
3C8
330
1F
100
AcDbEntity
  8
_DEFAULT_CAD_LAYER
 62
   253
370
    13
100
AcDbLine
 10
534.1404331375103
 20
586.4663349453145
 30
0.0
 11
536.1404331375103
 21
588.4663349453145
 31
0.0
1001
CHIEFARC-LNWT
1070
    12
  0
LINE
  5
3C9
330
1F
100
AcDbEntity
  8
_DEFAULT_CAD_LAYER
 62
   253
370
    13
100
AcDbLine
 10
533.4333263563235
 20
586.4663349453145
 30
0.0
 11
535.4333263563235
 21
588.4663349453145
 31
0.0
1001
CHIEFARC-LNWT
1070
    12
  0
LINE
  5
3CA
330
1F
100
AcDbEntity
  8
_DEFAULT_CAD_LAYER
 62
   253
370
    13
100
AcDbLine
 10
532.7262195751368
 20
586.4663349453145
 30
0.0
 11
534.7262195751368
 21
588.4663349453145
 31
0.0
1001
CHIEFARC-LNWT
1070
    12
  0
LINE
  5
3CB
330
1F
100
AcDbEntity
  8
_DEFAULT_CAD_LAYER
 62
   253
370
    13
100
AcDbLine
 10
532.0191127939502
 20
586.4663349453145
 30
0.0
 11
534.0191127939502
 21
588.4663349453145
 31
0.0
1001
CHIEFARC-LNWT
1070
    12
  0
LINE
  5
3CC
330
1F
100
AcDbEntity
  8
_DEFAULT_CAD_LAYER
 62
   253
370
    13
100
AcDbLine
 10
531.312006012764
 20
586.4663349453145
 30
0.0
 11
533.312006012764
 21
588.4663349453145
 31
0.0
1001
CHIEFARC-LNWT
1070
    12
  0
LINE
  5
3CD
330
1F
100
AcDbEntity
  8
_DEFAULT_CAD_LAYER
 62
   253
370
    13
100
AcDbLine
 10
530.6048992315775
 20
586.4663349453145
 30
0.0
 11
532.6048992315774
 21
588.4663349453145
 31
0.0
1001
CHIEFARC-LNWT
1070
    12
  0
LINE
  5
3CE
330
1F
100
AcDbEntity
  8
_DEFAULT_CAD_LAYER
 62
   253
370
    13
100
AcDbLine
 10
529.8977924503909
 20
586.4663349453145
 30
0.0
 11
531.8977924503909
 21
588.4663349453145
 31
0.0
1001
CHIEFARC-LNWT
1070
    12
  0
LINE
  5
3CF
330
1F
100
AcDbEntity
  8
_DEFAULT_CAD_LAYER
 62
   253
370
    13
100
AcDbLine
 10
529.1906856692041
 20
586.4663349453145
 30
0.0
 11
531.1906856692042
 21
588.4663349453145
 31
0.0
1001
CHIEFARC-LNWT
1070
    12
  0
LINE
  5
3D0
330
1F
100
AcDbEntity
  8
_DEFAULT_CAD_LAYER
 62
   253
370
    13
100
AcDbLine
 10
528.4835788880176
 20
586.4663349453145
 30
0.0
 11
530.4835788880176
 21
588.4663349453145
 31
0.0
1001
CHIEFARC-LNWT
1070
    12
  0
LINE
  5
3D1
330
1F
100
AcDbEntity
  8
_DEFAULT_CAD_LAYER
 62
   253
370
    13
100
AcDbLine
 10
527.7764721068314
 20
586.4663349453145
 30
0.0
 11
529.7764721068314
 21
588.4663349453145
 31
0.0
1001
CHIEFARC-LNWT
1070
    12
  0
LINE
  5
3D2
330
1F
100
AcDbEntity
  8
_DEFAULT_CAD_LAYER
 62
   253
370
    13
100
AcDbLine
 10
527.0693653256446
 20
586.4663349453145
 30
0.0
 11
529.0693653256446
 21
588.4663349453145
 31
0.0
1001
CHIEFARC-LNWT
1070
    12
  0
LINE
  5
3D3
330
1F
100
AcDbEntity
  8
_DEFAULT_CAD_LAYER
 62
   253
370
    13
100
AcDbLine
 10
526.3622585444583
 20
586.4663349453145
 30
0.0
 11
528.3622585444583
 21
588.4663349453145
 31
0.0
1001
CHIEFARC-LNWT
1070
    12
  0
LINE
  5
3D4
330
1F
100
AcDbEntity
  8
_DEFAULT_CAD_LAYER
 62
   253
370
    13
100
AcDbLine
 10
525.6551517632713
 20
586.4663349453145
 30
0.0
 11
527.6551517632713
 21
588.4663349453145
 31
0.0
1001
CHIEFARC-LNWT
1070
    12
  0
LINE
  5
3D5
330
1F
100
AcDbEntity
  8
_DEFAULT_CAD_LAYER
 62
   253
370
    13
100
AcDbLine
 10
524.948044982085
 20
586.4663349453145
 30
0.0
 11
526.948044982085
 21
588.4663349453145
 31
0.0
1001
CHIEFARC-LNWT
1070
    12
  0
LINE
  5
3D6
330
1F
100
AcDbEntity
  8
_DEFAULT_CAD_LAYER
 62
   253
370
    13
100
AcDbLine
 10
524.2409382008983
 20
586.4663349453145
 30
0.0
 11
526.2409382008983
 21
588.4663349453145
 31
0.0
1001
CHIEFARC-LNWT
1070
    12
  0
LINE
  5
3D7
330
1F
100
AcDbEntity
  8
_DEFAULT_CAD_LAYER
 62
   253
370
    13
100
AcDbLine
 10
523.5338314197121
 20
586.4663349453145
 30
0.0
 11
525.533831419712
 21
588.4663349453145
 31
0.0
1001
CHIEFARC-LNWT
1070
    12
  0
LINE
  5
3D8
330
1F
100
AcDbEntity
  8
_DEFAULT_CAD_LAYER
 62
   253
370
    13
100
AcDbLine
 10
522.8267246385254
 20
586.4663349453145
 30
0.0
 11
524.8267246385254
 21
588.4663349453145
 31
0.0
1001
CHIEFARC-LNWT
1070
    12
  0
LINE
  5
3D9
330
1F
100
AcDbEntity
  8
_DEFAULT_CAD_LAYER
 62
   253
370
    13
100
AcDbLine
 10
522.1196178573387
 20
586.4663349453145
 30
0.0
 11
524.1196178573388
 21
588.4663349453145
 31
0.0
1001
CHIEFARC-LNWT
1070
    12
  0
LINE
  5
3DA
330
1F
100
AcDbEntity
  8
_DEFAULT_CAD_LAYER
 62
   253
370
    13
100
AcDbLine
 10
521.4125110761521
 20
586.4663349453145
 30
0.0
 11
523.4125110761521
 21
588.4663349453145
 31
0.0
1001
CHIEFARC-LNWT
1070
    12
  0
LINE
  5
3DB
330
1F
100
AcDbEntity
  8
_DEFAULT_CAD_LAYER
 62
   253
370
    13
100
AcDbLine
 10
521.3227483098724
 20
587.0836789602213
 30
0.0
 11
522.7054042949657
 21
588.4663349453145
 31
0.0
1001
CHIEFARC-LNWT
1070
    12
  0
LINE
  5
3DC
330
1F
100
AcDbEntity
  8
_DEFAULT_CAD_LAYER
 62
   253
370
    13
100
AcDbLine
 10
521.3227483098724
 20
587.790785741408
 30
0.0
 11
521.998297513779
 21
588.4663349453145
 31
0.0
1001
CHIEFARC-LNWT
1070
    12
  0
LINE
  5
3DD
330
1F
100
AcDbEntity
  8
_DEFAULT_CAD_LAYER
 62
     7
370
    18
100
AcDbLine
 10
537.4164974221637
 20
588.4663349453145
 30
0.0
 11
537.4164974221637
 21
586.4663349453145
 31
0.0
  0
LINE
  5
3DE
330
1F
100
AcDbEntity
  8
_DEFAULT_CAD_LAYER
 62
     7
370
    18
100
AcDbLine
 10
537.4164974221637
 20
586.4663349453145
 30
0.0
 11
521.3227483098724
 21
586.4663349453145
 31
0.0
  0
LINE
  5
3DF
330
1F
100
AcDbEntity
  8
_DEFAULT_CAD_LAYER
 62
     7
370
    18
100
AcDbLine
 10
521.3227483098724
 20
586.4663349453145
 30
0.0
 11
521.3227483098724
 21
588.4663349453145
 31
0.0
  0
LINE
  5
3E0
330
1F
100
AcDbEntity
  8
_DEFAULT_CAD_LAYER
 62
     7
370
    18
100
AcDbLine
 10
521.3227483098724
 20
588.4663349453145
 30
0.0
 11
537.4164974221637
 21
588.4663349453145
 31
0.0
  0
LWPOLYLINE
  5
3E1
330
1F
100
AcDbEntity
  8
_DEFAULT_CAD_LAYER
100
AcDbPolyline
 90
       42
 70
     0
 43
0.0
 10
537.5190467536958
 20
586.4415585931379
 10
536.7854558909793
 20
586.4415585931379
 10
536.7854558909793
 20
586.6787431908714
 10
536.5360349976556
 20
586.6787431908714
 10
536.5360349976557
 20
586.4439941148021
 10
535.7584286831762
 20
586.4439941148021
 10
535.7584286831762
 20
586.6810323213684
 10
535.5236796071069
 20
586.6810323213685
 10
535.523679607107
 20
586.4586659320565
 10
534.8047605616449
 20
586.4586659320564
 10
534.8047605616449
 20
586.6884122894863
 10
534.5700114855756
 20
586.6884122894863
 10
534.5700114855756
 20
586.4586659320564
 10
533.8510924401135
 20
586.4586659320564
 10
533.8510924401135
 20
586.6787431908714
 10
533.6163433640442
 20
586.6787431908714
 10
533.6163433640442
 20
586.4439941148021
 10
532.897424318582
 20
586.4439941148021
 10
532.897424318582
 20
586.6810323213684
 10
532.6626752425127
 20
586.6810323213685
 10
532.6626752425128
 20
586.4439941148022
 10
531.9290843797963
 20
586.4439941148021
 10
531.9290843797963
 20
586.6736523532506
 10
531.6796634864727
 20
586.6736523532506
 10
531.6796634864727
 20
586.452253309715
 10
530.8876512832235
 20
586.452253309715
 10
530.8876512832236
 20
586.6810323213685
 10
530.623292644161
 20
586.6810323213685
 10
530.623292644161
 20
586.452253309715
 10
529.9043735986988
 20
586.452253309715
 10
529.9043735986988
 20
586.6662723851329
 10
529.6842963398839
 20
586.6662723851329
 10
529.684296339884
 20
586.4448733415973
 10
528.9360336599132
 20
586.4448733415973
 10
528.9360336599132
 20
586.6736523532508
 10
528.6866127665895
 20
586.6736523532506
 10
528.6866127665895
 20
586.4516625928903
 10
527.9383500866187
 20
586.4516625928903
 10
527.9383500866188
 20
586.6662723851329
 10
527.6595855587866
 20
586.6662723851329
 10
527.6595855587865
 20
586.4442826247725
 10
527.0433692341046
 20
586.4442826247725
  0
LWPOLYLINE
  5
3E2
330
1F
100
AcDbEntity
  8
_DEFAULT_CAD_LAYER
100
AcDbPolyline
 90
       42
 70
     0
 43
0.0
 10
527.6554383886715
 20
586.480649195798
 10
526.9218475259551
 20
586.480649195798
 10
526.9218475259551
 20
586.7178337935316
 10
526.6724266326314
 20
586.7178337935314
 10
526.6724266326315
 20
586.4830847174621
 10
525.894820318152
 20
586.4830847174622
 10
525.894820318152
 20
586.7201229240286
 10
525.6600712420827
 20
586.7201229240286
 10
525.6600712420828
 20
586.4977565347166
 10
524.9411521966207
 20
586.4977565347166
 10
524.9411521966207
 20
586.7275028921465
 10
524.7064031205514
 20
586.7275028921465
 10
524.7064031205514
 20
586.4977565347166
 10
523.9874840750892
 20
586.4977565347166
 10
523.9874840750892
 20
586.7178337935316
 10
523.7527349990199
 20
586.7178337935314
 10
523.7527349990199
 20
586.4830847174621
 10
523.0338159535578
 20
586.4830847174622
 10
523.0338159535578
 20
586.7201229240286
 10
522.7990668774885
 20
586.7201229240286
 10
522.7990668774886
 20
586.4830847174622
 10
522.0654760147721
 20
586.4830847174622
 10
522.0654760147721
 20
586.7127429559108
 10
521.8160551214485
 20
586.7127429559108
 10
521.8160551214485
 20
586.4913439123752
 10
521.0240429181993
 20
586.4913439123751
 10
521.0240429181994
 20
586.7201229240286
 10
520.7596842791368
 20
586.7201229240286
 10
520.7596842791368
 20
586.4913439123751
 10
520.0407652336746
 20
586.4913439123751
 10
520.0407652336746
 20
586.7053629877929
 10
519.8206879748597
 20
586.7053629877929
 10
519.8206879748598
 20
586.4839639442573
 10
519.072425294889
 20
586.4839639442573
 10
519.072425294889
 20
586.7127429559108
 10
520.3221864858406
 20
586.5428843520992
 10
519.4022133939254
 20
586.4833732274326
 10
520.0407652336746
 20
586.4913439123752
 10
520.3221864858406
 20
586.5428843520992
 10
520.0407652336746
 20
586.7053629877929
 10
519.8206879748598
 20
586.4839639442573
 10
519.4022133939254
 20
586.4833732274326
  0
LINE
  5
3E3
330
1F
100
AcDbEntity
  8
_DEFAULT_CAD_LAYER
 62
   174
370
     9
100
AcDbLine
 10
537.487291432797
 20
588.5589787711317
 30
0.0
 11
522.3669540401039
 21
588.5589787711317
 31
0.0
1001
CHIEFARC-LNWT
1070
    10
  0
LWPOLYLINE
  5
3E4
330
1F
100
AcDbEntity
  8
_DEFAULT_CAD_LAYER
370
    15
100
AcDbPolyline
 90
        3
 70
     0
 43
0.0
 10
537.6119393908654
 20
586.645688636749
 10
537.6119393908654
 20
588.688562694962
 10
535.6078420745084
 20
588.6885626949619
  0
INSERT
  5
3F5
330
1F
100
AcDbEntity
  8
_DEFAULT_CAD_LAYER
  6
Continuous
370
     0
100
AcDbBlockReference
  2
block35_1
 10
547.2944087146727
 20
571.3114373050381
 30
0.0
 41
0.7086279911767028
 42
0.7086279911767028
1001
CHIEFARC-LNWT
1070
     0
  0
INSERT
  5
3F6
330
1F
100
AcDbEntity
  8
_DEFAULT_CAD_LAYER
100
AcDbBlockReference
  2
block9_0
 10
522.1884309032824
 20
582.0678937676873
 30
0.0
 41
-1.542372881355957
 50
-90.0
  0
MTEXT
  5
3FA
330
1F
100
AcDbEntity
  8
Text
 62
   156
370
     9
100
AcDbMText
 10
571.8083531001154
 20
573.1278376344236
 30
0.0
 40
1.0
 41
16.6
 46
0.0
 71
     7
 72
     1
  1
\fArial|b0|i0|c0|p0;CMU MASONRY BLOCK
 73
     1
 44
1.0
1001
CHIEFARC-LNWT
1070
    10
1001
CHIEFARC_RTFBINARY
1000

1001
CHIEFARC_SIMPLE_TEXT_BINARY
1000

1001
CHIEFARC-WIDTHEXPANDED
1070
     1
1001
CHIEFARC_AUTOHEIGHT
1070
     1
1001
CHIEFARC_AUTOWIDTH
1070
     1
  0
MTEXT
  5
400
330
1F
100
AcDbEntity
  8
Text
 62
   156
370
     9
100
AcDbMText
 10
571.8083531001153
 20
591.3634262169737
 30
0.0
 40
1.0
 41
17.7
 46
0.0
 71
     7
 72
     1
  1
\fArial|b0|i0|c0|p0;DRAIN & DRY CHANNELS
 73
     1
 44
1.0
1001
CHIEFARC-LNWT
1070
    10
1001
CHIEFARC_RTFBINARY
1000

1001
CHIEFARC_SIMPLE_TEXT_BINARY
1000

1001
CHIEFARC-WIDTHEXPANDED
1070
     1
1001
CHIEFARC_AUTOHEIGHT
1070
     1
1001
CHIEFARC_AUTOWIDTH
1070
     1
  0
MTEXT
  5
401
330
1F
100
AcDbEntity
  8
Text
 62
   156
370
     9
100
AcDbMText
 10
571.7417718603679
 20
595.3764503793874
 30
0.0
 40
1.0
 41
12.55
 46
0.0
 71
     7
 72
     1
  1
\fArial|b0|i0|c0|p0;INSOFAST PANEL
 73
     1
 44
1.0
1001
CHIEFARC-LNWT
1070
    10
1001
CHIEFARC_RTFBINARY
1000

1001
CHIEFARC_SIMPLE_TEXT_BINARY
1000

1001
CHIEFARC-WIDTHEXPANDED
1070
     1
1001
CHIEFARC_AUTOHEIGHT
1070
     1
1001
CHIEFARC_AUTOWIDTH
1070
     1
  0
MTEXT
  5
402
330
1F
100
AcDbEntity
  8
Text
 62
   156
370
     9
100
AcDbMText
 10
571.8083531001154
 20
599.1417221649266
 30
0.0
 40
1.0
 41
27.80000000000001
 46
0.0
 71
     7
 72
     1
  1
\fArial|b0|i0|c0|p0;FIBERGLASS REINFORCED PANEL (FRP)
 73
     1
 44
1.0
1001
CHIEFARC-LNWT
1070
    10
1001
CHIEFARC_RTFBINARY
1000

1001
CHIEFARC_SIMPLE_TEXT_BINARY
1000

1001
CHIEFARC-WIDTHEXPANDED
1070
     1
1001
CHIEFARC_AUTOHEIGHT
1070
     1
1001
CHIEFARC_AUTOWIDTH
1070
     1
  0
MTEXT
  5
403
330
1F
100
AcDbEntity
  8
Text
 62
   156
370
     9
100
AcDbMText
 10
571.8083531001153
 20
603.1816519175554
 30
0.0
 40
1.0
 41
30.00000000000001
 46
0.0
 71
     7
 72
     1
  1
\fArial|b0|i0|c0|p0;2" X 2" STAINLESS STEEL CORNER GUARD*
 73
     1
 44
1.0
1001
CHIEFARC-LNWT
1070
    10
1001
CHIEFARC_RTFBINARY
1000

1001
CHIEFARC_SIMPLE_TEXT_BINARY
1000

1001
CHIEFARC-WIDTHEXPANDED
1070
     1
1001
CHIEFARC_AUTOHEIGHT
1070
     1
1001
CHIEFARC_AUTOWIDTH
1070
     1
  0
MTEXT
  5
404
330
1F
100
AcDbEntity
  8
Text
 62
   156
370
     9
100
AcDbMText
 10
571.8083531001154
 20
569.2056327770849
 30
0.0
 40
1.0
 41
13.81
 46
0.0
 71
     7
 72
     1
  1
\fArial|b0|i0|c0|p0;STEEL DOOR JAMB
 73
     1
 44
1.0
1001
CHIEFARC-LNWT
1070
    10
1001
CHIEFARC_RTFBINARY
1000

1001
CHIEFARC_SIMPLE_TEXT_BINARY
1000

1001
CHIEFARC-WIDTHEXPANDED
1070
     1
1001
CHIEFARC_AUTOHEIGHT
1070
     1
1001
CHIEFARC_AUTOWIDTH
1070
     1
  0
MTEXT
  5
405
330
1F
100
AcDbEntity
  8
Text
 62
   156
370
     9
100
AcDbMText
 10
522.1925228822038
 20
564.3423889143395
 30
0.0
 40
0.8
 41
27.46400000000001
 46
0.0
 71
     7
 72
     1
  1
\fArial|b0|i0|c0|p0;*  18 GA #304 STAINLESS STEEL CORNER GUARD
 73
     1
 44
1.0
1001
CHIEFARC-LNWT
1070
    10
1001
CHIEFARC_RTFBINARY
1000

1001
CHIEFARC_SIMPLE_TEXT_BINARY
1000

1001
CHIEFARC-WIDTHEXPANDED
1070
     1
1001
CHIEFARC_AUTOHEIGHT
1070
     1
1001
CHIEFARC_AUTOWIDTH
1070
     1
  0
MTEXT
  5
406
330
1F
100
AcDbEntity
  8
Text
 62
   156
370
     9
100
AcDbMText
 10
522.1925228822038
 20
563.1023889143395
 30
0.0
 40
0.8
 41
26.96800000000001
 46
0.0
 71
     7
 72
     1
  1
\fArial|b0|i0|c0|p0;    AVAILABLE THROUGH:   WWW.FRPSHOP.COM
 73
     1
 44
1.0
1001
CHIEFARC-LNWT
1070
    10
1001
CHIEFARC_RTFBINARY
1000

1001
CHIEFARC_SIMPLE_TEXT_BINARY
1000

1001
CHIEFARC-WIDTHEXPANDED
1070
     1
1001
CHIEFARC_AUTOHEIGHT
1070
     1
1001
CHIEFARC_AUTOWIDTH
1070
     1
  0
MTEXT
  5
407
330
1F
100
AcDbEntity
  8
Text
 62
   156
370
     9
100
AcDbMText
 10
571.8083531001154
 20
566.016047306755
 30
0.0
 40
1.0
 41
9.83
 46
0.0
 71
     7
 72
     1
  1
\fArial|b0|i0|c0|p0;STEEL DOOR
 73
     1
 44
1.0
1001
CHIEFARC-LNWT
1070
    10
1001
CHIEFARC_RTFBINARY
1000

1001
CHIEFARC_SIMPLE_TEXT_BINARY
1000

1001
CHIEFARC-WIDTHEXPANDED
1070
     1
1001
CHIEFARC_AUTOHEIGHT
1070
     1
1001
CHIEFARC_AUTOWIDTH
1070
     1
  0
MTEXT
  5
408
330
1F
100
AcDbEntity
  8
Text
 62
   156
370
     9
100
AcDbMText
 10
511.0
 20
534.4520670391063
 30
0.0
 40
2.0
 41
93.30000000000004
 46
0.0
 71
     7
 72
     1
  1
\fArial|b0|i0|c0|p0;ISF 07.01.25     INSOFAST - DOOR - CMU - FULL WIDTH STEEL JAMB -
 73
     1
 44
1.0
1001
CHIEFARC-LNWT
1070
    10
1001
CHIEFARC_RTFBINARY
1000

1001
CHIEFARC_SIMPLE_TEXT_BINARY
1000

1001
CHIEFARC-WIDTHEXPANDED
1070
     1
1001
CHIEFARC_AUTOHEIGHT
1070
     1
1001
CHIEFARC_AUTOWIDTH
1070
     1
  0
MTEXT
  5
409
330
1F
100
AcDbEntity
  8
Text
 62
   156
370
     9
100
AcDbMText
 10
511.0
 20
530.8120670391062
 30
0.0
 40
2.0
 41
92.26000000000016
 46
0.0
 71
     7
 72
     1
  1
\fArial|b0|i0|c0|p0;                          FIBER REINFORCE PANEL (FRP) FINISH
 73
     1
 44
1.0
1001
CHIEFARC-LNWT
1070
    10
1001
CHIEFARC_RTFBINARY
1000

1001
CHIEFARC_SIMPLE_TEXT_BINARY
1000

1001
CHIEFARC_AUTOHEIGHT
1070
     1
1001
CHIEFARC_AUTOWIDTH
1070
     1
  0
INSERT
  5
415
330
1F
100
AcDbEntity
  8
_DEFAULT_CAD_LAYER
  6
Continuous
370
     0
100
AcDbBlockReference
  2
block34_1
 10
572.8905546652844
 20
574.7436540311226
 30
0.0
 41
0.8204288768826176
 42
0.7104276958693847
1001
CHIEFARC-LNWT
1070
     0
  0
LINE
  5
416
330
1F
100
AcDbEntity
  8
Text
100
AcDbLine
 10
557.7034000436472
 20
588.6964691212376
 30
0.0
 11
558.0374324916139
 21
589.6716215830123
 31
0.0
  0
LINE
  5
417
330
1F
100
AcDbEntity
  8
Text
100
AcDbLine
 10
557.7034000436472
 20
588.6964691212376
 30
0.0
 11
558.4570298326881
 21
589.3997060237604
 31
0.0
  0
LWPOLYLINE
  5
418
330
1F
100
AcDbEntity
  8
Text
100
AcDbPolyline
 90
        3
 70
     0
 43
0.0
 10
571.2687051558929
 20
603.4579299492285
 10
567.2694065062726
 20
603.4579299492285
 10
557.7034000436472
 20
588.6964691212376
  0
LINE
  5
419
330
1F
100
AcDbEntity
  8
Text
100
AcDbLine
 10
556.044835104531
 20
577.8706036847835
 30
0.0
 11
556.9864979857042
 21
577.4513531412888
 31
0.0
  0
LINE
  5
41A
330
1F
100
AcDbEntity
  8
Text
100
AcDbLine
 10
556.044835104531
 20
577.8706036847835
 30
0.0
 11
556.6784197439216
 21
577.0575412611479
 31
0.0
  0
LWPOLYLINE
  5
41B
330
1F
100
AcDbEntity
  8
Text
100
AcDbPolyline
 90
        3
 70
     0
 43
0.0
 10
571.3172543333112
 20
569.2270709074534
 10
567.0937357812052
 20
569.2270709074534
 10
556.044835104531
 20
577.8706036847835
  0
LINE
  5
41C
330
1F
100
AcDbEntity
  8
Text
100
AcDbLine
 10
551.2304195170557
 20
578.0331895155268
 30
0.0
 11
552.1793945128179
 21
577.6307637988808
 31
0.0
  0
LINE
  5
41D
330
1F
100
AcDbEntity
  8
Text
100
AcDbLine
 10
551.2304195170557
 20
578.0331895155268
 30
0.0
 11
551.878373587836
 21
577.2315315322452
 31
0.0
  0
LWPOLYLINE
  5
41E
330
1F
100
AcDbEntity
  8
Text
100
AcDbPolyline
 90
        3
 70
     0
 43
0.0
 10
571.2417718603679
 20
565.9823253384282
 10
567.2130088358227
 20
565.9823253384282
 10
551.2304195170557
 20
578.0331895155268
  0
LINE
  5
41F
330
1F
100
AcDbEntity
  8
Text
100
AcDbLine
 10
560.3884645706817
 20
588.5989876372586
 30
0.0
 11
560.7224970186484
 21
589.5741400990333
 31
0.0
  0
LINE
  5
420
330
1F
100
AcDbEntity
  8
Text
100
AcDbLine
 10
560.3884645706817
 20
588.5989876372586
 30
0.0
 11
561.1420943597226
 21
589.3022245397814
 31
0.0
  0
LWPOLYLINE
  5
421
330
1F
100
AcDbEntity
  8
Text
100
AcDbPolyline
 90
        3
 70
     0
 43
0.0
 10
571.2687051558929
 20
599.4579299492285
 10
567.4415417892453
 20
599.4827063014051
 10
560.3884645706817
 20
588.5989876372586
  0
LINE
  5
422
330
1F
100
AcDbEntity
  8
Text
100
AcDbLine
 10
562.0621001841065
 20
587.4224505049768
 30
0.0
 11
562.3961326320732
 21
588.3976029667516
 31
0.0
  0
LINE
  5
423
330
1F
100
AcDbEntity
  8
Text
100
AcDbLine
 10
562.0621001841065
 20
587.4224505049768
 30
0.0
 11
562.8157299731474
 21
588.1256874074996
 31
0.0
  0
LWPOLYLINE
  5
424
330
1F
100
AcDbEntity
  8
Text
100
AcDbPolyline
 90
        3
 70
     0
 43
0.0
 10
571.2687051558929
 20
595.4579299492285
 10
567.2694065062726
 20
595.4579299492285
 10
562.0621001841065
 20
587.4224505049768
  0
LINE
  5
425
330
1F
100
AcDbEntity
  8
Text
100
AcDbLine
 10
564.211949859443
 20
586.4696496937737
 30
0.0
 11
564.5433647280297
 21
587.4456948694084
 31
0.0
  0
LINE
  5
426
330
1F
100
AcDbEntity
  8
Text
100
AcDbLine
 10
564.211949859443
 20
586.4696496937737
 30
0.0
 11
564.9636901202593
 21
587.1749060870576
 31
0.0
  0
LWPOLYLINE
  5
427
330
1F
100
AcDbEntity
  8
Text
100
AcDbPolyline
 90
        3
 70
     0
 43
0.0
 10
571.2687051558929
 20
591.4579299492285
 10
567.4415417892453
 20
591.4827063014051
 10
564.211949859443
 20
586.4696496937737
  0
LINE
  5
428
330
1F
100
AcDbEntity
  8
Text
100
AcDbLine
 10
560.7722638864689
 20
578.8343382268262
 30
0.0
 11
561.6914427245576
 21
578.3678510741523
 31
0.0
  0
LINE
  5
429
330
1F
100
AcDbEntity
  8
Text
100
AcDbLine
 10
560.7722638864689
 20
578.8343382268262
 30
0.0
 11
561.3637806717595
 21
577.9901771683075
 31
0.0
  0
LWPOLYLINE
  5
42A
330
1F
100
AcDbEntity
  8
Text
100
AcDbPolyline
 90
        3
 70
     0
 43
0.0
 10
571.3172388676296
 20
573.1947419887717
 10
567.2726453631317
 20
573.1947419887717
 10
560.7722638864689
 20
578.8343382268262
  0
INSERT
  5
42B
330
1F
100
AcDbEntity
  8
_DEFAULT_CAD_LAYER
100
AcDbBlockReference
  2
block34_1
 10
520.8335562510699
 20
574.7436540311226
 30
0.0
 41
-0.8204288768826176
 42
0.7104276958693847
  0
ENDSEC
  0
SECTION
  2
OBJECTS
  0
DICTIONARY
  5
C
330
0
100
AcDbDictionary
281
     1
  3
ACAD_GROUP
350
D
  3
ACAD_LAYOUT
350
1A
  3
ACAD_MLEADERSTYLE
350
42D
  3
ACAD_MLINESTYLE
350
17
  3
ACAD_PLOTSETTINGS
350
19
  3
ACAD_PLOTSTYLENAME
350
E
  3
ACAD_TABLESTYLE
350
42C
  3
ACAD_VISUALSTYLE
350
2A
  0
DICTIONARY
  5
D
102
{ACAD_REACTORS
330
C
102
}
330
C
100
AcDbDictionary
281
     1
  0
DICTIONARY
  5
1A
102
{ACAD_REACTORS
330
C
102
}
330
C
100
AcDbDictionary
281
     1
  3
Layout1
350
1E
  3
Layout2
350
26
  3
Model
350
22
  0
DICTIONARY
  5
42D
102
{ACAD_REACTORS
330
C
102
}
330
C
100
AcDbDictionary
281
     1
  0
DICTIONARY
  5
17
102
{ACAD_REACTORS
330
C
102
}
330
C
100
AcDbDictionary
281
     1
  3
Standard
350
18
  0
DICTIONARY
  5
19
102
{ACAD_REACTORS
330
C
102
}
330
C
100
AcDbDictionary
281
     1
  0
ACDBDICTIONARYWDFLT
  5
E
102
{ACAD_REACTORS
330
C
102
}
330
C
100
AcDbDictionary
281
     1
  3
Normal
350
F
100
AcDbDictionaryWithDefault
340
F
  0
DICTIONARY
  5
42C
102
{ACAD_REACTORS
330
C
102
}
330
C
100
AcDbDictionary
281
     1
  0
DICTIONARY
  5
2A
102
{ACAD_REACTORS
330
C
102
}
330
C
100
AcDbDictionary
281
     1
  3
2dWireframe
350
2F
  3
3D Hidden
350
31
  3
3dWireframe
350
30
  3
Basic
350
32
  3
Brighten
350
36
  3
ColorChange
350
3A
  3
Conceptual
350
34
  3
Dim
350
35
  3
Facepattern
350
39
  3
Flat
350
2B
  3
FlatWithEdges
350
2C
  3
Gouraud
350
2D
  3
GouraudWithEdges
350
2E
  3
Linepattern
350
38
  3
Realistic
350
33
  3
Thicken
350
37
  0
LAYOUT
  5
1E
102
{ACAD_REACTORS
330
1A
102
}
330
1A
100
AcDbPlotSettings
  1

  2
none_device
  4

  6

 40
0.0
 41
0.0
 42
0.0
 43
0.0
 44
0.0
 45
0.0
 46
0.0
 47
0.0
 48
0.0
 49
0.0
140
0.0
141
0.0
142
1.0
143
1.0
 70
   688
 72
     0
 73
     0
 74
     5
  7

 75
    16
 76
     0
 77
     2
 78
   300
147
1.0
148
0.0
149
0.0
100
AcDbLayout
  1
Layout1
 70
     1
 71
     1
 10
0.0
 20
0.0
 11
12.0
 21
9.0
 12
0.0
 22
0.0
 32
0.0
 14
1.000000000000000E+20
 24
1.000000000000000E+20
 34
1.000000000000000E+20
 15
-1.000000000000000E+20
 25
-1.000000000000000E+20
 35
-1.000000000000000E+20
146
0.0
 13
0.0
 23
0.0
 33
0.0
 16
1.0
 26
0.0
 36
0.0
 17
0.0
 27
1.0
 37
0.0
 76
     0
330
1B
  0
LAYOUT
  5
26
102
{ACAD_REACTORS
330
1A
102
}
330
1A
100
AcDbPlotSettings
  1

  2
none_device
  4

  6

 40
0.0
 41
0.0
 42
0.0
 43
0.0
 44
0.0
 45
0.0
 46
0.0
 47
0.0
 48
0.0
 49
0.0
140
0.0
141
0.0
142
1.0
143
1.0
 70
   688
 72
     0
 73
     0
 74
     5
  7

 75
    16
 76
     0
 77
     2
 78
   300
147
1.0
148
0.0
149
0.0
100
AcDbLayout
  1
Layout2
 70
     1
 71
     2
 10
0.0
 20
0.0
 11
0.0
 21
0.0
 12
0.0
 22
0.0
 32
0.0
 14
0.0
 24
0.0
 34
0.0
 15
0.0
 25
0.0
 35
0.0
146
0.0
 13
0.0
 23
0.0
 33
0.0
 16
1.0
 26
0.0
 36
0.0
 17
0.0
 27
1.0
 37
0.0
 76
     0
330
23
  0
LAYOUT
  5
22
102
{ACAD_REACTORS
330
1A
102
}
330
1A
100
AcDbPlotSettings
  1

  2
none_device
  4

  6

 40
0.0
 41
0.0
 42
0.0
 43
0.0
 44
0.0
 45
0.0
 46
0.0
 47
0.0
 48
0.0
 49
0.0
140
0.0
141
0.0
142
1.0
143
1.0
 70
  1712
 72
     0
 73
     0
 74
     0
  7

 75
     0
 76
     0
 77
     2
 78
   300
147
1.0
148
0.0
149
0.0
100
AcDbLayout
  1
Model
 70
     1
 71
     0
 10
0.0
 20
0.0
 11
12.0
 21
9.0
 12
0.0
 22
0.0
 32
0.0
 14
0.0
 24
1.0
 34
0.0
 15
1.0
 25
0.0
 35
0.0
146
0.0
 13
0.0
 23
0.0
 33
0.0
 16
1.0
 26
0.0
 36
0.0
 17
0.0
 27
1.0
 37
0.0
 76
     0
330
1F
331
29
  0
MLINESTYLE
  5
18
102
{ACAD_REACTORS
330
17
102
}
330
17
100
AcDbMlineStyle
  2
Standard
 70
     0
  3

 62
   256
 51
90.0
 52
90.0
 71
     2
 49
0.5
 62
   256
  6
BYLAYER
 49
-0.5
 62
   256
  6
BYLAYER
  0
ACDBPLACEHOLDER
  5
F
102
{ACAD_REACTORS
330
E
102
}
330
E
  0
VISUALSTYLE
  5
2F
102
{ACAD_REACTORS
330
2A
102
}
330
2A
100
AcDbVisualStyle
  2
2dWireframe
 70
     4
 71
     0
 72
     2
 73
     0
 90
        0
 40
-0.6
 41
-30.0
 62
     5
 63
     7
421
 16777215
 74
     1
 91
        4
 64
     7
 65
   257
 75
     1
175
     1
 42
1.0
 92
        0
 66
   257
 43
1.0
 76
     1
 77
     6
 78
     2
 67
     7
 79
     5
170
     0
171
     0
290
     0
174
     0
 93
        1
 44
0.0
173
     0
291
     0
 45
0.0
  0
VISUALSTYLE
  5
31
102
{ACAD_REACTORS
330
2A
102
}
330
2A
100
AcDbVisualStyle
  2
3D Hidden
 70
     6
 71
     1
 72
     2
 73
     2
 90
        0
 40
-0.6
 41
-30.0
 62
     5
 63
     7
421
 16777215
 74
     2
 91
        2
 64
     7
 65
   257
 75
     2
175
     1
 42
40.0
 92
        0
 66
   257
 43
1.0
 76
     1
 77
     6
 78
     2
 67
     7
 79
     3
170
     0
171
     0
290
     0
174
     0
 93
        1
 44
0.0
173
     0
291
     0
 45
0.0
  0
VISUALSTYLE
  5
30
102
{ACAD_REACTORS
330
2A
102
}
330
2A
100
AcDbVisualStyle
  2
3dWireframe
 70
     5
 71
     0
 72
     2
 73
     0
 90
        0
 40
-0.6
 41
-30.0
 62
     5
 63
     7
421
 16777215
 74
     1
 91
        4
 64
     7
 65
   257
 75
     1
175
     1
 42
1.0
 92
        0
 66
   257
 43
1.0
 76
     1
 77
     6
 78
     2
 67
     7
 79
     5
170
     0
171
     0
290
     0
174
     0
 93
        1
 44
0.0
173
     0
291
     0
 45
0.0
  0
VISUALSTYLE
  5
32
102
{ACAD_REACTORS
330
2A
102
}
330
2A
100
AcDbVisualStyle
  2
Basic
 70
     7
 71
     1
 72
     0
 73
     1
 90
        0
 40
-0.6
 41
-30.0
 62
     5
 63
     7
421
 16777215
 74
     0
 91
        4
 64
     7
 65
   257
 75
     1
175
     1
 42
1.0
 92
        8
 66
     7
 43
1.0
 76
     1
 77
     6
 78
     2
 67
     7
 79
     5
170
     0
171
     0
290
     0
174
     0
 93
        1
 44
0.0
173
     0
291
     1
 45
0.0
  0
VISUALSTYLE
  5
36
102
{ACAD_REACTORS
330
2A
102
}
330
2A
100
AcDbVisualStyle
  2
Brighten
 70
    12
 71
     2
 72
     2
 73
     0
 90
        0
 40
-0.6
 41
-30.0
 62
     5
 63
     7
421
 16777215
 74
     1
 91
        4
 64
     7
 65
   257
 75
     1
175
     1
 42
1.0
 92
        8
 66
     7
 43
1.0
 76
     1
 77
     6
 78
     2
 67
     7
 79
     5
170
     0
171
     0
290
     0
174
     0
 93
        1
 44
50.0
173
     0
291
     1
 45
0.0
  0
VISUALSTYLE
  5
3A
102
{ACAD_REACTORS
330
2A
102
}
330
2A
100
AcDbVisualStyle
  2
ColorChange
 70
    16
 71
     2
 72
     2
 73
     3
 90
        0
 40
-0.6
 41
-30.0
 62
     5
 63
     8
421
  8421504
 74
     1
 91
        4
 64
     7
 65
   257
 75
     1
175
     1
 42
1.0
 92
        8
 66
     8
424
  8421504
 43
1.0
 76
     1
 77
     6
 78
     2
 67
     7
 79
     5
170
     0
171
     0
290
     0
174
     0
 93
        1
 44
0.0
173
     0
291
     1
 45
0.0
  0
VISUALSTYLE
  5
34
102
{ACAD_REACTORS
330
2A
102
}
330
2A
100
AcDbVisualStyle
  2
Conceptual
 70
     9
 71
     3
 72
     2
 73
     0
 90
        0
 40
-0.6
 41
-30.0
 62
     5
 63
     7
421
 16777215
 74
     2
 91
        2
 64
     7
 65
   257
 75
     1
175
     1
 42
40.0
 92
        8
 66
     7
 43
1.0
 76
     1
 77
     6
 78
     2
 67
     7
 79
     3
170
     0
171
     0
290
     0
174
     0
 93
        1
 44
0.0
173
     0
291
     0
 45
0.0
  0
VISUALSTYLE
  5
35
102
{ACAD_REACTORS
330
2A
102
}
330
2A
100
AcDbVisualStyle
  2
Dim
 70
    11
 71
     2
 72
     2
 73
     0
 90
        0
 40
-0.6
 41
-30.0
 62
     5
 63
     7
421
 16777215
 74
     1
 91
        4
 64
     7
 65
   257
 75
     1
175
     1
 42
1.0
 92
        8
 66
     7
 43
1.0
 76
     1
 77
     6
 78
     2
 67
     7
 79
     5
170
     0
171
     0
290
     0
174
     0
 93
        1
 44
-50.0
173
     0
291
     1
 45
0.0
  0
VISUALSTYLE
  5
39
102
{ACAD_REACTORS
330
2A
102
}
330
2A
100
AcDbVisualStyle
  2
Facepattern
 70
    15
 71
     2
 72
     2
 73
     0
 90
        0
 40
-0.6
 41
-30.0
 62
     5
 63
     7
421
 16777215
 74
     1
 91
        4
 64
     7
 65
   257
 75
     1
175
     1
 42
1.0
 92
        8
 66
     7
 43
1.0
 76
     1
 77
     6
 78
     2
 67
     7
 79
     5
170
     0
171
     0
290
     0
174
     0
 93
        1
 44
0.0
173
     0
291
     1
 45
0.0
  0
VISUALSTYLE
  5
2B
102
{ACAD_REACTORS
330
2A
102
}
330
2A
100
AcDbVisualStyle
  2
Flat
 70
     0
 71
     2
 72
     1
 73
     1
 90
        2
 40
-0.6
 41
30.0
 62
     5
 63
     7
421
 16777215
 74
     0
 91
        4
 64
     7
 65
   257
 75
     1
175
     1
 42
1.0
 92
        8
 66
     7
 43
1.0
 76
     1
 77
     6
 78
     2
 67
     7
 79
     5
170
     0
171
     0
290
     0
174
     0
 93
       13
 44
0.0
173
     0
291
     1
 45
0.0
  0
VISUALSTYLE
  5
2C
102
{ACAD_REACTORS
330
2A
102
}
330
2A
100
AcDbVisualStyle
  2
FlatWithEdges
 70
     1
 71
     2
 72
     1
 73
     1
 90
        2
 40
-0.6
 41
30.0
 62
     5
 63
     7
421
 16777215
 74
     1
 91
        4
 64
     7
 65
   257
 75
     1
175
     1
 42
1.0
 92
        0
 66
   257
 43
1.0
 76
     1
 77
     6
 78
     2
 67
     7
 79
     5
170
     0
171
     0
290
     0
174
     0
 93
       13
 44
0.0
173
     0
291
     1
 45
0.0
  0
VISUALSTYLE
  5
2D
102
{ACAD_REACTORS
330
2A
102
}
330
2A
100
AcDbVisualStyle
  2
Gouraud
 70
     2
 71
     2
 72
     2
 73
     1
 90
        2
 40
-0.6
 41
30.0
 62
     5
 63
     7
421
 16777215
 74
     0
 91
        4
 64
     7
 65
   257
 75
     1
175
     1
 42
1.0
 92
        0
 66
     7
 43
1.0
 76
     1
 77
     6
 78
     2
 67
     7
 79
     5
170
     0
171
     0
290
     0
174
     0
 93
       13
 44
0.0
173
     0
291
     1
 45
0.0
  0
VISUALSTYLE
  5
2E
102
{ACAD_REACTORS
330
2A
102
}
330
2A
100
AcDbVisualStyle
  2
GouraudWithEdges
 70
     3
 71
     2
 72
     2
 73
     1
 90
        2
 40
-0.6
 41
30.0
 62
     5
 63
     7
421
 16777215
 74
     1
 91
        4
 64
     7
 65
   257
 75
     1
175
     1
 42
1.0
 92
        0
 66
   257
 43
1.0
 76
     1
 77
     6
 78
     2
 67
     7
 79
     5
170
     0
171
     0
290
     0
174
     0
 93
       13
 44
0.0
173
     0
291
     1
 45
0.0
  0
VISUALSTYLE
  5
38
102
{ACAD_REACTORS
330
2A
102
}
330
2A
100
AcDbVisualStyle
  2
Linepattern
 70
    14
 71
     2
 72
     2
 73
     0
 90
        0
 40
-0.6
 41
-30.0
 62
     5
 63
     7
421
 16777215
 74
     1
 91
        4
 64
     7
 65
   257
 75
     7
175
     7
 42
1.0
 92
        8
 66
     7
 43
1.0
 76
     1
 77
     6
 78
     2
 67
     7
 79
     5
170
     0
171
     0
290
     0
174
     0
 93
        1
 44
0.0
173
     0
291
     1
 45
0.0
  0
VISUALSTYLE
  5
33
102
{ACAD_REACTORS
330
2A
102
}
330
2A
100
AcDbVisualStyle
  2
Realistic
 70
     8
 71
     2
 72
     2
 73
     0
 90
        0
 40
-0.6
 41
-30.0
 62
     5
 63
     7
421
 16777215
 74
     1
 91
        0
 64
     7
 65
   257
 75
     1
175
     1
 42
1.0
 92
        8
 66
     8
424
  7895160
 43
1.0
 76
     1
 77
     6
 78
     2
 67
     7
 79
     5
170
     0
171
     0
290
     0
174
     0
 93
       13
 44
0.0
173
     0
291
     0
 45
0.0
  0
VISUALSTYLE
  5
37
102
{ACAD_REACTORS
330
2A
102
}
330
2A
100
AcDbVisualStyle
  2
Thicken
 70
    13
 71
     2
 72
     2
 73
     0
 90
        0
 40
-0.6
 41
-30.0
 62
     5
 63
     7
421
 16777215
 74
     1
 91
        4
 64
     7
 65
   257
 75
     1
175
     1
 42
1.0
 92
       12
 66
     7
 43
1.0
 76
     1
 77
     6
 78
     2
 67
     7
 79
     5
170
     0
171
     0
290
     0
174
     0
 93
        1
 44
0.0
173
     0
291
     1
 45
0.0
  0
ENDSEC
  0
EOF
