  0
SECTION
  2
HEADER
  9
$ACADVER
  1
AC1021
  9
$ACADMAINTVER
 70
    25
  9
$DWGCODEPAGE
  3
ANSI_1252
  9
$COMMENTS
  1
Chief Architect X2; Version 12.6.0.25; Chief Architect, Inc.; 2009
  9
$INSBASE
 10
0.0
 20
0.0
 30
0.0
  9
$EXTMIN
 10
0.0
 20
1.0
 30
0.0
  9
$EXTMAX
 10
1.0
 20
0.0
 30
0.0
  9
$LIMMIN
 10
0.0
 20
0.0
  9
$LIMMAX
 10
12.0
 20
9.0
  9
$ORTHOMODE
 70
     0
  9
$REGENMODE
 70
     1
  9
$FILLMODE
 70
     1
  9
$QTEXTMODE
 70
     0
  9
$MIRRTEXT
 70
     1
  9
$LTSCALE
 40
96.0
  9
$ATTMODE
 70
     1
  9
$TEXTSIZE
 40
0.2
  9
$TRACEWID
 40
0.05
  9
$TEXTSTYLE
  7
Standard
  9
$CLAYER
  8
0
  9
$CELTYPE
  6
ByLayer
  9
$CECOLOR
 62
   256
  9
$CELTSCALE
 40
1.0
  9
$DISPSILH
 70
     0
  9
$DIMSCALE
 40
1.0
  9
$DIMASZ
 40
5.0
  9
$DIMEXO
 40
3.0
  9
$DIMDLI
 40
0.38
  9
$DIMRND
 40
0.0
  9
$DIMDLE
 40
0.0
  9
$DIMEXE
 40
3.0
  9
$DIMTP
 40
0.0
  9
$DIMTM
 40
0.0
  9
$DIMTXT
 40
6.0
  9
$DIMCEN
 40
0.09
  9
$DIMTSZ
 40
0.0
  9
$DIMTOL
 70
     0
  9
$DIMLIM
 70
     0
  9
$DIMTIH
 70
     0
  9
$DIMTOH
 70
     0
  9
$DIMSE1
 70
     0
  9
$DIMSE2
 70
     0
  9
$DIMTAD
 70
     0
  9
$DIMZIN
 70
     0
  9
$DIMBLK
  1

  9
$DIMASO
 70
     1
  9
$DIMSHO
 70
     1
  9
$DIMPOST
  1

  9
$DIMAPOST
  1

  9
$DIMALT
 70
     0
  9
$DIMALTD
 70
     0
  9
$DIMALTF
 40
1.0
  9
$DIMLFAC
 40
1.0
  9
$DIMTOFL
 70
     0
  9
$DIMTVP
 40
0.0
  9
$DIMTIX
 70
     0
  9
$DIMSOXD
 70
     0
  9
$DIMSAH
 70
     0
  9
$DIMBLK1
  1

  9
$DIMBLK2
  1

  9
$DIMSTYLE
  2
Standard
  9
$DIMCLRD
 70
     0
  9
$DIMCLRE
 70
     0
  9
$DIMCLRT
 70
     0
  9
$DIMTFAC
 40
1.0
  9
$DIMGAP
 40
0.5
  9
$DIMJUST
 70
     0
  9
$DIMSD1
 70
     0
  9
$DIMSD2
 70
     0
  9
$DIMTOLJ
 70
     1
  9
$DIMTZIN
 70
     0
  9
$DIMALTZ
 70
    12
  9
$DIMALTTZ
 70
     0
  9
$DIMUPT
 70
     0
  9
$DIMDEC
 70
     4
  9
$DIMTDEC
 70
     4
  9
$DIMALTU
 70
     2
  9
$DIMALTTD
 70
     2
  9
$DIMTXSTY
  7
Standard
  9
$DIMAUNIT
 70
     0
  9
$DIMADEC
 70
     0
  9
$DIMALTRND
 40
0.0
  9
$DIMAZIN
 70
     0
  9
$DIMDSEP
 70
    46
  9
$DIMATFIT
 70
     3
  9
$DIMFRAC
 70
     2
  9
$DIMLDRBLK
  1

  9
$DIMLUNIT
 70
     4
  9
$DIMLWD
 70
    -2
  9
$DIMLWE
 70
    -2
  9
$DIMTMOVE
 70
     0
  9
$DIMFXL
 40
3.0
  9
$DIMFXLON
 70
     0
  9
$DIMJOGANG
 40
0.7853981633974483
  9
$DIMTFILL
 70
     0
  9
$DIMTFILLCLR
 70
     0
  9
$DIMARCSYM
 70
     0
  9
$DIMLTYPE
  6

  9
$DIMLTEX1
  6

  9
$DIMLTEX2
  6

  9
$LUNITS
 70
     2
  9
$LUPREC
 70
     4
  9
$SKETCHINC
 40
0.1
  9
$FILLETRAD
 40
0.5
  9
$AUNITS
 70
     0
  9
$AUPREC
 70
     0
  9
$MENU
  1
.
  9
$ELEVATION
 40
0.0
  9
$PELEVATION
 40
0.0
  9
$THICKNESS
 40
0.0
  9
$LIMCHECK
 70
     0
  9
$CHAMFERA
 40
0.5
  9
$CHAMFERB
 40
0.5
  9
$CHAMFERC
 40
1.0
  9
$CHAMFERD
 40
0.0
  9
$SKPOLY
 70
     0
  9
$TDCREATE
 40
2455498.608619977
  9
$TDUCREATE
 40
2455498.81695331
  9
$TDUPDATE
 40
2455498.608619988
  9
$TDUUPDATE
 40
2455498.816953322
  9
$TDINDWG
 40
0.0000000116
  9
$TDUSRTIMER
 40
0.0000000116
  9
$USRTIMER
 70
     1
  9
$ANGBASE
 50
0.0
  9
$ANGDIR
 70
     0
  9
$PDMODE
 70
     0
  9
$PDSIZE
 40
0.0
  9
$PLINEWID
 40
0.0
  9
$SPLFRAME
 70
     0
  9
$SPLINETYPE
 70
     6
  9
$SPLINESEGS
 70
     8
  9
$HANDSEED
  5
154
  9
$SURFTAB1
 70
     6
  9
$SURFTAB2
 70
     6
  9
$SURFTYPE
 70
     6
  9
$SURFU
 70
     6
  9
$SURFV
 70
     6
  9
$UCSBASE
  2

  9
$UCSNAME
  2

  9
$UCSORG
 10
0.0
 20
0.0
 30
0.0
  9
$UCSXDIR
 10
1.0
 20
0.0
 30
0.0
  9
$UCSYDIR
 10
0.0
 20
1.0
 30
0.0
  9
$UCSORTHOREF
  2

  9
$UCSORTHOVIEW
 70
     0
  9
$UCSORGTOP
 10
0.0
 20
0.0
 30
0.0
  9
$UCSORGBOTTOM
 10
0.0
 20
0.0
 30
0.0
  9
$UCSORGLEFT
 10
0.0
 20
0.0
 30
0.0
  9
$UCSORGRIGHT
 10
0.0
 20
0.0
 30
0.0
  9
$UCSORGFRONT
 10
0.0
 20
0.0
 30
0.0
  9
$UCSORGBACK
 10
0.0
 20
0.0
 30
0.0
  9
$PUCSBASE
  2

  9
$PUCSNAME
  2

  9
$PUCSORG
 10
0.0
 20
0.0
 30
0.0
  9
$PUCSXDIR
 10
1.0
 20
0.0
 30
0.0
  9
$PUCSYDIR
 10
0.0
 20
1.0
 30
0.0
  9
$PUCSORTHOREF
  2

  9
$PUCSORTHOVIEW
 70
     0
  9
$PUCSORGTOP
 10
0.0
 20
0.0
 30
0.0
  9
$PUCSORGBOTTOM
 10
0.0
 20
0.0
 30
0.0
  9
$PUCSORGLEFT
 10
0.0
 20
0.0
 30
0.0
  9
$PUCSORGRIGHT
 10
0.0
 20
0.0
 30
0.0
  9
$PUCSORGFRONT
 10
0.0
 20
0.0
 30
0.0
  9
$PUCSORGBACK
 10
0.0
 20
0.0
 30
0.0
  9
$USERI1
 70
     0
  9
$USERI2
 70
     0
  9
$USERI3
 70
     0
  9
$USERI4
 70
     0
  9
$USERI5
 70
     0
  9
$USERR1
 40
0.0
  9
$USERR2
 40
0.0
  9
$USERR3
 40
0.0
  9
$USERR4
 40
0.0
  9
$USERR5
 40
0.0
  9
$WORLDVIEW
 70
     1
  9
$SHADEDGE
 70
     3
  9
$SHADEDIF
 70
    70
  9
$TILEMODE
 70
     1
  9
$MAXACTVP
 70
    64
  9
$PINSBASE
 10
0.0
 20
0.0
 30
0.0
  9
$PLIMCHECK
 70
     0
  9
$PEXTMIN
 10
1.000000000000000E+20
 20
1.000000000000000E+20
 30
1.000000000000000E+20
  9
$PEXTMAX
 10
-1.000000000000000E+20
 20
-1.000000000000000E+20
 30
-1.000000000000000E+20
  9
$PLIMMIN
 10
0.0
 20
0.0
  9
$PLIMMAX
 10
12.0
 20
9.0
  9
$UNITMODE
 70
     0
  9
$VISRETAIN
 70
     1
  9
$PLINEGEN
 70
     0
  9
$PSLTSCALE
 70
     1
  9
$TREEDEPTH
 70
  3020
  9
$CMLSTYLE
  2
Standard
  9
$CMLJUST
 70
     0
  9
$CMLSCALE
 40
1.0
  9
$PROXYGRAPHICS
 70
     1
  9
$MEASUREMENT
 70
     0
  9
$CELWEIGHT
370
    -1
  9
$ENDCAPS
280
     0
  9
$JOINSTYLE
280
     0
  9
$LWDISPLAY
290
     0
  9
$INSUNITS
 70
     1
  9
$HYPERLINKBASE
  1

  9
$STYLESHEET
  1

  9
$XEDIT
290
     1
  9
$CEPSNTYPE
380
     0
  9
$PSTYLEMODE
290
     1
  9
$FINGERPRINTGUID
  2
{7D899E1B-326D-4B27-B4F6-F6A38851A83B}
  9
$VERSIONGUID
  2
{FAEB1C32-E019-11D5-929B-00C0DF256EC4}
  9
$EXTNAMES
290
     1
  9
$PSVPSCALE
 40
0.0
  9
$OLESTARTUP
290
     0
  9
$SORTENTS
280
   127
  9
$INDEXCTL
280
     0
  9
$HIDETEXT
280
     1
  9
$XCLIPFRAME
290
     0
  9
$HALOGAP
280
     0
  9
$OBSCOLOR
 70
   257
  9
$OBSLTYPE
280
     0
  9
$INTERSECTIONDISPLAY
280
     0
  9
$INTERSECTIONCOLOR
 70
   257
  9
$DIMASSOC
280
     2
  9
$PROJECTNAME
  1

  9
$CAMERADISPLAY
290
     0
  9
$LENSLENGTH
 40
50.0
  9
$CAMERAHEIGHT
 40
0.0
  9
$STEPSPERSEC
 40
2.0
  9
$STEPSIZE
 40
6.0
  9
$3DDWFPREC
 40
2.0
  9
$PSOLWIDTH
 40
0.25
  9
$PSOLHEIGHT
 40
4.0
  9
$LOFTANG1
 40
1.570796326794897
  9
$LOFTANG2
 40
1.570796326794897
  9
$LOFTMAG1
 40
0.0
  9
$LOFTMAG2
 40
0.0
  9
$LOFTPARAM
 70
     7
  9
$LOFTNORMALS
280
     1
  9
$LATITUDE
 40
37.795
  9
$LONGITUDE
 40
-122.394
  9
$NORTHDIRECTION
 40
0.0
  9
$TIMEZONE
 70
 -8000
  9
$LIGHTGLYPHDISPLAY
280
     1
  9
$TILEMODELIGHTSYNCH
280
     1
  9
$SOLIDHIST
280
     1
  9
$SHOWHIST
280
     1
  9
$DWFFRAME
280
     2
  9
$DGNFRAME
280
     2
  9
$REALWORLDSCALE
290
     1
  9
$INTERFERECOLOR
 62
   256
  9
$CSHADOW
280
     0
  9
$SHADOWPLANELOCATION
 40
0.0
  0
ENDSEC
  0
SECTION
  2
CLASSES
  0
CLASS
  1
ACDBDICTIONARYWDFLT
  2
AcDbDictionaryWithDefault
  3
ObjectDBX Classes
 90
        0
 91
        4
280
     0
281
     0
  0
CLASS
  1
VISUALSTYLE
  2
AcDbVisualStyle
  3
ObjectDBX Classes
 90
     4095
 91
        4
280
     0
281
     0
  0
ENDSEC
  0
SECTION
  2
TABLES
  0
TABLE
  2
VPORT
  5
8
330
0
100
AcDbSymbolTable
 70
     1
  0
VPORT
  5
29
330
8
100
AcDbSymbolTableRecord
100
AcDbViewportTableRecord
  2
*Active
 70
     0
 10
0.0
 20
0.0
 11
1.0
 21
1.0
 12
10.42990654205607
 22
4.5
 13
0.0
 23
0.0
 14
0.5
 24
0.5
 15
0.5
 25
0.5
 16
0.0
 26
0.0
 36
1.0
 17
0.0
 27
0.0
 37
0.0
 40
9.0
 41
1.972972972850329
 42
50.0
 43
0.0
 44
0.0
 50
0.0
 51
0.0
 71
     0
 72
   100
 73
     1
 74
     3
 75
     0
 76
     0
 77
     0
 78
     0
281
     0
 65
     1
110
0.0
120
0.0
130
0.0
111
1.0
121
0.0
131
0.0
112
0.0
122
1.0
132
0.0
 79
     0
146
0.0
 60
     3
 61
     5
292
     1
282
     1
141
0.0
142
0.0
 63
   250
  0
ENDTAB
  0
TABLE
  2
LTYPE
  5
5
330
0
100
AcDbSymbolTable
 70
     3
  0
LTYPE
  5
14
330
5
100
AcDbSymbolTableRecord
100
AcDbLinetypeTableRecord
  2
ByBlock
 70
     0
  3

 72
    65
 73
     0
 40
0.0
  0
LTYPE
  5
15
330
5
100
AcDbSymbolTableRecord
100
AcDbLinetypeTableRecord
  2
ByLayer
 70
     0
  3

 72
    65
 73
     0
 40
0.0
  0
LTYPE
  5
16
330
5
100
AcDbSymbolTableRecord
100
AcDbLinetypeTableRecord
  2
Continuous
 70
     0
  3
Solid line
 72
    65
 73
     0
 40
0.0
  0
LTYPE
  5
43
330
5
100
AcDbSymbolTableRecord
100
AcDbLinetypeTableRecord
  2
TinyDash
 70
     0
  3
TinyDash LINE
 72
    65
 73
     2
 40
0.0625
 49
0.03125
 74
     0
 49
-0.03125
 74
     0
  0
LTYPE
  5
117
330
5
100
AcDbSymbolTableRecord
100
AcDbLinetypeTableRecord
  2
ISO08W100
 70
     0
  3
ISO08W100 LINE
 72
    65
 73
     4
 40
0.96
 49
0.48
 74
     0
 49
-0.12
 74
     0
 49
0.24
 74
     0
 49
-0.12
 74
     0
  0
ENDTAB
  0
TABLE
  2
LAYER
  5
2
330
0
100
AcDbSymbolTable
 70
     4
  0
LAYER
  5
10
330
2
100
AcDbSymbolTableRecord
100
AcDbLayerTableRecord
  2
0
 70
     0
 62
     7
  6
Continuous
370
    -3
390
F
347
0
  0
LAYER
  5
3C
330
2
100
AcDbSymbolTableRecord
100
AcDbLayerTableRecord
  2
_DEFAULT_CAD_LAYER
 70
     0
 62
     7
  6
Continuous
370
    18
390
F
347
0
  0
LAYER
  5
119
330
2
100
AcDbSymbolTableRecord
100
AcDbLayerTableRecord
  2
Text
 70
     0
 62
   156
  6
Continuous
370
     9
390
F
347
0
1001
CHIEFARC-LNWT
1070
    10
  0
ENDTAB
  0
TABLE
  2
STYLE
  5
3
330
0
100
AcDbSymbolTable
 70
     1
  0
STYLE
  5
11
330
3
100
AcDbSymbolTableRecord
100
AcDbTextStyleTableRecord
  2
Standard
 70
     0
 40
0.0
 41
1.0
 50
0.0
 71
     0
 42
0.2
  3
txt
  4

  0
ENDTAB
  0
TABLE
  2
VIEW
  5
6
330
0
100
AcDbSymbolTable
 70
     0
  0
ENDTAB
  0
TABLE
  2
UCS
  5
7
330
0
100
AcDbSymbolTable
 70
     0
  0
ENDTAB
  0
TABLE
  2
APPID
  5
9
330
0
100
AcDbSymbolTable
 70
     7
  0
APPID
  5
12
330
9
100
AcDbSymbolTableRecord
100
AcDbRegAppTableRecord
  2
ACAD
 70
     0
  0
APPID
  5
49
330
9
100
AcDbSymbolTableRecord
100
AcDbRegAppTableRecord
  2
CHIEFARC-LNWT
 70
     0
  0
APPID
  5
11E
330
9
100
AcDbSymbolTableRecord
100
AcDbRegAppTableRecord
  2
CHIEFARC_RTFBINARY
 70
     0
  0
APPID
  5
11F
330
9
100
AcDbSymbolTableRecord
100
AcDbRegAppTableRecord
  2
CHIEFARC_SIMPLE_TEXT_BINARY
 70
     0
  0
APPID
  5
120
330
9
100
AcDbSymbolTableRecord
100
AcDbRegAppTableRecord
  2
CHIEFARC_AUTOHEIGHT
 70
     0
  0
APPID
  5
121
330
9
100
AcDbSymbolTableRecord
100
AcDbRegAppTableRecord
  2
CHIEFARC_AUTOWIDTH
 70
     0
  0
APPID
  5
12A
330
9
100
AcDbSymbolTableRecord
100
AcDbRegAppTableRecord
  2
CHIEFARC-WIDTHEXPANDED
 70
     0
  0
ENDTAB
  0
TABLE
  2
DIMSTYLE
  5
A
330
0
100
AcDbSymbolTable
 70
     2
100
AcDbDimStyleTable
  0
DIMSTYLE
105
27
330
A
100
AcDbSymbolTableRecord
100
AcDbDimStyleTableRecord
  2
Standard
 70
     0
340
11
  0
DIMSTYLE
105
3B
330
A
100
AcDbSymbolTableRecord
100
AcDbDimStyleTableRecord
  2
CHIEF
 70
     0
 41
5.0
 42
3.0
 44
3.0
 49
3.0
 73
     0
 74
     0
140
6.0
143
1.0
147
0.5
171
     0
276
     2
277
     4
285
    12
340
11
  0
ENDTAB
  0
TABLE
  2
BLOCK_RECORD
  5
1
330
0
100
AcDbSymbolTable
 70
     3
  0
BLOCK_RECORD
  5
1F
330
1
100
AcDbSymbolTableRecord
100
AcDbBlockTableRecord
  2
*Model_Space
340
22
 70
     0
280
     1
281
     0
  0
BLOCK_RECORD
  5
1B
330
1
100
AcDbSymbolTableRecord
100
AcDbBlockTableRecord
  2
*Paper_Space
340
1E
 70
     0
280
     1
281
     0
  0
BLOCK_RECORD
  5
23
330
1
100
AcDbSymbolTableRecord
100
AcDbBlockTableRecord
  2
*Paper_Space0
340
26
 70
     0
280
     1
281
     0
  0
BLOCK_RECORD
  5
3D
330
1
100
AcDbSymbolTableRecord
100
AcDbBlockTableRecord
  2
block72
340
0
102
{BLKREFS
331
4A
331
4B
331
4C
331
4D
331
4E
331
4F
331
50
331
51
331
74
331
75
331
76
331
77
331
78
331
79
102
}
 70
     0
280
     1
281
     0
  0
BLOCK_RECORD
  5
52
330
1
100
AcDbSymbolTableRecord
100
AcDbBlockTableRecord
  2
block68
340
0
102
{BLKREFS
331
73
331
7A
331
7B
331
7C
331
81
331
85
102
}
 70
     0
280
     1
281
     0
  0
ENDTAB
  0
ENDSEC
  0
SECTION
  2
BLOCKS
  0
BLOCK
  5
20
330
1F
100
AcDbEntity
  8
0
100
AcDbBlockBegin
  2
*Model_Space
 70
     0
 10
0.0
 20
0.0
 30
0.0
  3
*Model_Space
  1

  0
ENDBLK
  5
21
330
1F
100
AcDbEntity
  8
0
100
AcDbBlockEnd
  0
BLOCK
  5
1C
330
1B
100
AcDbEntity
 67
     1
  8
0
100
AcDbBlockBegin
  2
*Paper_Space
 70
     0
 10
0.0
 20
0.0
 30
0.0
  3
*Paper_Space
  1

  0
ENDBLK
  5
1D
330
1B
100
AcDbEntity
 67
     1
  8
0
100
AcDbBlockEnd
  0
BLOCK
  5
24
330
23
100
AcDbEntity
  8
0
100
AcDbBlockBegin
  2
*Paper_Space0
 70
     0
 10
0.0
 20
0.0
 30
0.0
  3
*Paper_Space0
  1

  0
ENDBLK
  5
25
330
23
100
AcDbEntity
  8
0
100
AcDbBlockEnd
  0
BLOCK
  5
47
330
3D
100
AcDbEntity
  8
0
100
AcDbBlockBegin
  2
block72
 70
     0
 10
0.0
 20
0.0
 30
0.0
  3
block72
  1

  0
SOLID
  5
3E
330
3D
100
AcDbEntity
  8
0
 62
     7
100
AcDbTrace
 10
24.03990222948221
 20
24.03532534256453
 30
0.0
 11
24.03990222948221
 21
0.0353253425645299
 31
0.0
 12
-23.96009777051779
 22
24.03532534256454
 32
0.0
 13
-23.96009777051779
 23
0.035325342564537
 33
0.0
  0
LINE
  5
3F
330
3D
100
AcDbEntity
  8
0
 62
     7
100
AcDbLine
 10
24.03990222948221
 20
24.03532534256453
 30
0.0
 11
24.03990222948221
 21
0.0353253425645299
 31
0.0
  0
LINE
  5
40
330
3D
100
AcDbEntity
  8
0
 62
     7
100
AcDbLine
 10
24.03990222948221
 20
0.0353253425645299
 30
0.0
 11
-23.96009777051779
 21
0.035325342564537
 31
0.0
  0
LINE
  5
41
330
3D
100
AcDbEntity
  8
0
 62
     7
100
AcDbLine
 10
-23.96009777051779
 20
0.035325342564537
 30
0.0
 11
-23.96009777051779
 21
24.03532534256454
 31
0.0
  0
LINE
  5
42
330
3D
100
AcDbEntity
  8
0
 62
     7
100
AcDbLine
 10
-23.96009777051779
 20
24.03532534256454
 30
0.0
 11
24.03990222948221
 21
24.03532534256453
 31
0.0
  0
LINE
  5
44
330
3D
100
AcDbEntity
  8
0
  6
TinyDash
100
AcDbLine
 10
-7.960097770517791
 20
24.00286087472438
 30
0.0
 11
-7.960097770517791
 21
0.0
 31
0.0
  0
LINE
  5
45
330
3D
100
AcDbEntity
  8
0
  6
TinyDash
100
AcDbLine
 10
8.039902229482209
 20
24.00286087472438
 30
0.0
 11
8.039902229482209
 21
0.0
 31
0.0
  0
LINE
  5
46
330
3D
100
AcDbEntity
  8
0
  6
TinyDash
100
AcDbLine
 10
23.94809257183078
 20
23.25286087472438
 30
0.0
 11
-24.0399022294821
 21
23.25286087472438
 31
0.0
  0
ENDBLK
  5
48
330
3D
100
AcDbEntity
  8
0
100
AcDbBlockEnd
  0
BLOCK
  5
71
330
52
100
AcDbEntity
  8
0
100
AcDbBlockBegin
  2
block68
 70
     0
 10
0.0
 20
0.0
 30
0.0
  3
block68
  1

  0
SOLID
  5
53
330
52
100
AcDbEntity
  8
0
 62
   254
100
AcDbTrace
 10
-1.25
 20
3.492871345874335
 30
0.0
 11
-1.375
 21
3.367871345874335
 31
0.0
 12
-1.370740728286133
 22
3.40022372651215
 32
0.0
 13
-1.373930607671726
 23
3.384187119901841
 33
0.0
  0
SOLID
  5
54
330
52
100
AcDbEntity
  8
0
 62
   254
100
AcDbTrace
 10
-1.25
 20
3.492871345874335
 30
0.0
 11
-1.370740728286133
 21
3.40022372651215
 31
0.0
 12
-1.358253175473055
 22
3.430371345874335
 32
0.0
 13
-1.365484941563911
 23
3.415706774919971
 33
0.0
  0
SOLID
  5
55
330
52
100
AcDbEntity
  8
0
 62
   254
100
AcDbTrace
 10
-1.25
 20
3.492871345874335
 30
0.0
 11
-1.358253175473055
 21
3.430371345874335
 31
0.0
 12
-1.338388347648318
 22
3.456259693522653
 32
0.0
 13
-1.349169167536404
 23
3.443966524500425
 33
0.0
  0
SOLID
  5
56
330
52
100
AcDbEntity
  8
0
 62
   254
100
AcDbTrace
 10
-1.25
 20
3.492871345874335
 30
0.0
 11
-1.338388347648318
 21
3.456259693522653
 31
0.0
 12
-1.3125
 22
3.476124521347389
 32
0.0
 13
-1.32609517862609
 23
3.467040513410739
 33
0.0
  0
SOLID
  5
57
330
52
100
AcDbEntity
  8
0
 62
   254
100
AcDbTrace
 10
-1.25
 20
3.492871345874335
 30
0.0
 11
-1.3125
 21
3.476124521347389
 31
0.0
 12
-1.282352380637815
 22
3.488612074160468
 32
0.0
 13
-1.297835429045636
 23
3.483356287438245
 33
0.0
  0
SOLID
  5
58
330
52
100
AcDbEntity
  8
0
 62
   254
100
AcDbTrace
 10
-1.25
 20
3.492871345874335
 30
0.0
 11
-1.282352380637815
 21
3.488612074160468
 31
0.0
 12
-1.25
 22
3.492871345874335
 32
0.0
 13
-1.266315774027506
 23
3.491801953546061
 33
0.0
  0
SOLID
  5
59
330
52
100
AcDbEntity
  8
0
 62
   254
100
AcDbTrace
 10
1.375
 20
3.367871345874335
 30
0.0
 11
1.25
 21
3.492871345874335
 31
0.0
 12
1.282352380637815
 22
3.488612074160468
 32
0.0
 13
1.266315774027506
 23
3.491801953546061
 33
0.0
  0
SOLID
  5
5A
330
52
100
AcDbEntity
  8
0
 62
   254
100
AcDbTrace
 10
1.375
 20
3.367871345874335
 30
0.0
 11
1.282352380637815
 21
3.488612074160468
 31
0.0
 12
1.3125
 22
3.476124521347389
 32
0.0
 13
1.297835429045636
 23
3.483356287438245
 33
0.0
  0
SOLID
  5
5B
330
52
100
AcDbEntity
  8
0
 62
   254
100
AcDbTrace
 10
1.375
 20
3.367871345874335
 30
0.0
 11
1.3125
 21
3.476124521347389
 31
0.0
 12
1.338388347648318
 22
3.456259693522653
 32
0.0
 13
1.32609517862609
 23
3.467040513410739
 33
0.0
  0
SOLID
  5
5C
330
52
100
AcDbEntity
  8
0
 62
   254
100
AcDbTrace
 10
1.375
 20
3.367871345874335
 30
0.0
 11
1.338388347648318
 21
3.456259693522653
 31
0.0
 12
1.358253175473055
 22
3.430371345874335
 32
0.0
 13
1.349169167536404
 23
3.443966524500425
 33
0.0
  0
SOLID
  5
5D
330
52
100
AcDbEntity
  8
0
 62
   254
100
AcDbTrace
 10
1.375
 20
3.367871345874335
 30
0.0
 11
1.358253175473055
 21
3.430371345874335
 31
0.0
 12
1.370740728286133
 22
3.40022372651215
 32
0.0
 13
1.365484941563911
 23
3.415706774919971
 33
0.0
  0
SOLID
  5
5E
330
52
100
AcDbEntity
  8
0
 62
   254
100
AcDbTrace
 10
1.375
 20
3.367871345874335
 30
0.0
 11
1.370740728286133
 21
3.40022372651215
 31
0.0
 12
1.375
 22
3.367871345874335
 32
0.0
 13
1.373930607671726
 23
3.384187119901841
 33
0.0
  0
SOLID
  5
5F
330
52
100
AcDbEntity
  8
0
 62
   254
100
AcDbTrace
 10
1.25
 20
0.1178713458743346
 30
0.0
 11
1.375
 21
0.2428713458743346
 31
0.0
 12
1.370740728286133
 22
0.2105189652365195
 32
0.0
 13
1.373930607671726
 23
0.2265555718468281
 33
0.0
  0
SOLID
  5
60
330
52
100
AcDbEntity
  8
0
 62
   254
100
AcDbTrace
 10
1.25
 20
0.1178713458743346
 30
0.0
 11
1.370740728286133
 21
0.2105189652365195
 31
0.0
 12
1.358253175473055
 22
0.1803713458743346
 32
0.0
 13
1.365484941563911
 23
0.1950359168286983
 33
0.0
  0
SOLID
  5
61
330
52
100
AcDbEntity
  8
0
 62
   254
100
AcDbTrace
 10
1.25
 20
0.1178713458743346
 30
0.0
 11
1.358253175473055
 21
0.1803713458743346
 31
0.0
 12
1.338388347648318
 22
0.1544829982260161
 32
0.0
 13
1.349169167536404
 23
0.1667761672482445
 33
0.0
  0
SOLID
  5
62
330
52
100
AcDbEntity
  8
0
 62
   254
100
AcDbTrace
 10
1.25
 20
0.1178713458743346
 30
0.0
 11
1.338388347648318
 21
0.1544829982260161
 31
0.0
 12
1.3125
 22
0.1346181704012797
 32
0.0
 13
1.32609517862609
 23
0.1437021783379302
 33
0.0
  0
SOLID
  5
63
330
52
100
AcDbEntity
  8
0
 62
   254
100
AcDbTrace
 10
1.25
 20
0.1178713458743346
 30
0.0
 11
1.3125
 21
0.1346181704012797
 31
0.0
 12
1.282352380637815
 22
0.122130617588201
 32
0.0
 13
1.297835429045636
 23
0.1273864043104237
 33
0.0
  0
SOLID
  5
64
330
52
100
AcDbEntity
  8
0
 62
   254
100
AcDbTrace
 10
1.25
 20
0.1178713458743346
 30
0.0
 11
1.282352380637815
 21
0.122130617588201
 31
0.0
 12
1.25
 22
0.1178713458743346
 32
0.0
 13
1.266315774027506
 23
0.1189407382026083
 33
0.0
  0
SOLID
  5
65
330
52
100
AcDbEntity
  8
0
 62
   254
100
AcDbTrace
 10
-1.375
 20
0.2428713458743346
 30
0.0
 11
-1.25
 21
0.1178713458743346
 31
0.0
 12
-1.282352380637815
 22
0.122130617588201
 32
0.0
 13
-1.266315774027506
 23
0.1189407382026083
 33
0.0
  0
SOLID
  5
66
330
52
100
AcDbEntity
  8
0
 62
   254
100
AcDbTrace
 10
-1.375
 20
0.2428713458743346
 30
0.0
 11
-1.282352380637815
 21
0.122130617588201
 31
0.0
 12
-1.3125
 22
0.1346181704012798
 32
0.0
 13
-1.297835429045636
 23
0.1273864043104237
 33
0.0
  0
SOLID
  5
67
330
52
100
AcDbEntity
  8
0
 62
   254
100
AcDbTrace
 10
-1.375
 20
0.2428713458743346
 30
0.0
 11
-1.3125
 21
0.1346181704012798
 31
0.0
 12
-1.338388347648318
 22
0.1544829982260161
 32
0.0
 13
-1.32609517862609
 23
0.1437021783379302
 33
0.0
  0
SOLID
  5
68
330
52
100
AcDbEntity
  8
0
 62
   254
100
AcDbTrace
 10
-1.375
 20
0.2428713458743346
 30
0.0
 11
-1.338388347648318
 21
0.1544829982260161
 31
0.0
 12
-1.358253175473055
 22
0.1803713458743346
 32
0.0
 13
-1.349169167536404
 23
0.1667761672482445
 33
0.0
  0
SOLID
  5
69
330
52
100
AcDbEntity
  8
0
 62
   254
100
AcDbTrace
 10
-1.375
 20
0.2428713458743346
 30
0.0
 11
-1.358253175473055
 21
0.1803713458743346
 31
0.0
 12
-1.370740728286133
 22
0.2105189652365195
 32
0.0
 13
-1.365484941563911
 23
0.1950359168286984
 33
0.0
  0
SOLID
  5
6A
330
52
100
AcDbEntity
  8
0
 62
   254
100
AcDbTrace
 10
-1.375
 20
0.2428713458743346
 30
0.0
 11
-1.370740728286133
 21
0.2105189652365195
 31
0.0
 12
-1.375
 22
0.2428713458743346
 32
0.0
 13
-1.373930607671726
 23
0.2265555718468281
 33
0.0
  0
SOLID
  5
6B
330
52
100
AcDbEntity
  8
0
 62
   254
100
AcDbTrace
 10
-1.375
 20
3.367871345874335
 30
0.0
 11
-1.25
 21
3.492871345874335
 31
0.0
 12
1.375
 22
3.367871345874335
 32
0.0
 13
1.25
 23
3.492871345874335
 33
0.0
  0
SOLID
  5
6C
330
52
100
AcDbEntity
  8
0
 62
   254
100
AcDbTrace
 10
-1.375
 20
3.367871345874335
 30
0.0
 11
1.375
 21
3.367871345874335
 31
0.0
 12
1.25
 22
0.1178713458743346
 32
0.0
 13
1.375
 23
0.2428713458743346
 33
0.0
  0
SOLID
  5
6D
330
52
100
AcDbEntity
  8
0
 62
   254
100
AcDbTrace
 10
-1.375
 20
3.367871345874335
 30
0.0
 11
1.25
 21
0.1178713458743346
 31
0.0
 12
-1.375
 22
0.2428713458743346
 32
0.0
 13
-1.25
 23
0.1178713458743346
 33
0.0
  0
LWPOLYLINE
  5
6E
330
52
100
AcDbEntity
  8
0
 62
     7
100
AcDbPolyline
 90
        8
 70
     1
 43
0.0
 10
-1.375
 20
3.367871345874335
 42
-0.414213562373095
 10
-1.25
 20
3.492871345874335
 10
1.25
 20
3.492871345874335
 42
-0.414213562373095
 10
1.375
 20
3.367871345874335
 10
1.375
 20
0.2428713458743346
 42
-0.414213562373095
 10
1.25
 20
0.1178713458743346
 10
-1.25
 20
0.1178713458743346
 42
-0.414213562373095
 10
-1.375
 20
0.2428713458743346
  0
ARC
  5
6F
330
52
100
AcDbEntity
  8
0
100
AcDbCircle
 10
-0.0373461095921357
 20
3.453908369509861
 30
0.0
 40
0.1628351392670404
100
AcDbArc
 50
24.77661321025582
 51
158.3197021877426
  0
ARC
  5
70
330
52
100
AcDbEntity
  8
0
100
AcDbCircle
 10
0.0097084443658559
 20
0.1492488058404433
 30
0.0
 40
0.1492488058404707
100
AcDbArc
 50
195.0000000000063
 51
344.9999999999937
  0
ENDBLK
  5
72
330
52
100
AcDbEntity
  8
0
100
AcDbBlockEnd
  0
ENDSEC
  0
SECTION
  2
ENTITIES
  0
INSERT
  5
4A
330
1F
100
AcDbEntity
  8
_DEFAULT_CAD_LAYER
  6
Continuous
370
     0
100
AcDbBlockReference
  2
block72
 10
487.0747916633783
 20
651.4532856829849
 30
0.0
1001
CHIEFARC-LNWT
1070
     0
  0
INSERT
  5
4B
330
1F
100
AcDbEntity
  8
_DEFAULT_CAD_LAYER
100
AcDbBlockReference
  2
block72
 10
583.0747916633783
 20
651.4532856829849
 30
0.0
  0
INSERT
  5
4C
330
1F
100
AcDbEntity
  8
_DEFAULT_CAD_LAYER
100
AcDbBlockReference
  2
block72
 10
487.0747916633783
 20
603.4532856829849
 30
0.0
  0
INSERT
  5
4D
330
1F
100
AcDbEntity
  8
_DEFAULT_CAD_LAYER
100
AcDbBlockReference
  2
block72
 10
583.0747916633783
 20
603.4532856829849
 30
0.0
  0
INSERT
  5
4E
330
1F
100
AcDbEntity
  8
_DEFAULT_CAD_LAYER
100
AcDbBlockReference
  2
block72
 10
487.0747916633783
 20
627.4532856829849
 30
0.0
  0
INSERT
  5
4F
330
1F
100
AcDbEntity
  8
_DEFAULT_CAD_LAYER
100
AcDbBlockReference
  2
block72
 10
535.0747916633783
 20
627.4532856829849
 30
0.0
  0
INSERT
  5
50
330
1F
100
AcDbEntity
  8
_DEFAULT_CAD_LAYER
100
AcDbBlockReference
  2
block72
 10
583.0747916633783
 20
627.4532856829849
 30
0.0
  0
INSERT
  5
51
330
1F
100
AcDbEntity
  8
_DEFAULT_CAD_LAYER
100
AcDbBlockReference
  2
block72
 10
503.0747916633783
 20
651.4532856829849
 30
0.0
  0
INSERT
  5
73
330
1F
100
AcDbEntity
  8
_DEFAULT_CAD_LAYER
  6
Continuous
370
     0
100
AcDbBlockReference
  2
block68
 10
527.5177946285102
 20
598.8357237455016
 30
0.0
1001
CHIEFARC-LNWT
1070
     0
  0
INSERT
  5
74
330
1F
100
AcDbEntity
  8
_DEFAULT_CAD_LAYER
100
AcDbBlockReference
  2
block72
 10
551.0747916633783
 20
651.4532856829849
 30
0.0
  0
INSERT
  5
75
330
1F
100
AcDbEntity
  8
_DEFAULT_CAD_LAYER
100
AcDbBlockReference
  2
block72
 10
487.0747916633783
 20
579.4532856829849
 30
0.0
  0
INSERT
  5
76
330
1F
100
AcDbEntity
  8
_DEFAULT_CAD_LAYER
100
AcDbBlockReference
  2
block72
 10
535.0747916633783
 20
579.4532856829849
 30
0.0
  0
INSERT
  5
77
330
1F
100
AcDbEntity
  8
_DEFAULT_CAD_LAYER
100
AcDbBlockReference
  2
block72
 10
583.0747916633783
 20
579.4532856829849
 30
0.0
  0
INSERT
  5
78
330
1F
100
AcDbEntity
  8
_DEFAULT_CAD_LAYER
100
AcDbBlockReference
  2
block72
 10
503.0747916633783
 20
603.4532856829849
 30
0.0
  0
INSERT
  5
79
330
1F
100
AcDbEntity
  8
_DEFAULT_CAD_LAYER
100
AcDbBlockReference
  2
block72
 10
551.0747916633783
 20
603.4532856829849
 30
0.0
  0
INSERT
  5
7A
330
1F
100
AcDbEntity
  8
_DEFAULT_CAD_LAYER
100
AcDbBlockReference
  2
block68
 10
559.0957791625497
 20
594.988722096814
 30
0.0
  0
INSERT
  5
7B
330
1F
100
AcDbEntity
  8
_DEFAULT_CAD_LAYER
100
AcDbBlockReference
  2
block68
 10
479.0392236621557
 20
594.988722096814
 30
0.0
  0
INSERT
  5
7C
330
1F
100
AcDbEntity
  8
_DEFAULT_CAD_LAYER
100
AcDbBlockReference
  2
block68
 10
559.2825727037507
 20
618.3931995076426
 30
0.0
  0
LWPOLYLINE
  5
7D
330
1F
100
AcDbEntity
  8
_DEFAULT_CAD_LAYER
 62
     2
370
    30
100
AcDbPolyline
 90
        6
 70
     0
 43
0.0
 10
460.425750692633
 20
603.073654263515
 10
477.5022233841822
 20
603.073654263515
 42
-0.2679491924311049
 10
477.9352360860744
 20
602.823654263515
 10
478.3512281116466
 20
602.1031349396804
 42
-0.1316524975873838
 10
478.4182154097545
 20
601.8531349396804
 10
478.4182154097543
 20
596.6792850369968
  0
LWPOLYLINE
  5
7E
330
1F
100
AcDbEntity
  8
_DEFAULT_CAD_LAYER
 62
     2
370
    30
100
AcDbPolyline
 90
       10
 70
     0
 43
0.0
 10
479.0053366930707
 20
597.5924966441589
 10
479.0053366930707
 20
602.0104536134043
 42
-0.1316524975873837
 10
479.0723239911786
 20
602.2604536134043
 10
479.4883160167508
 20
602.9809729372389
 42
-0.2679491924311049
 10
479.9213287186429
 20
603.2309729372389
 10
557.9695215251791
 20
603.2309729372389
 42
-0.2679491924311049
 10
558.4025342270712
 20
602.9809729372389
 10
558.8185262526434
 20
602.2604536134044
 42
-0.1316524975873761
 10
558.8855135507513
 20
602.0104536134044
 10
558.8855135507513
 20
597.1618731124138
  0
LWPOLYLINE
  5
7F
330
1F
100
AcDbEntity
  8
_DEFAULT_CAD_LAYER
 62
     2
370
    30
100
AcDbPolyline
 90
        6
 70
     0
 43
0.0
 10
586.0413636928735
 20
603.2309729372389
 10
560.3184406961763
 20
603.2309729372389
 42
0.2679491924311049
 10
559.8854279942841
 20
602.9809729372389
 10
559.4694359687119
 20
602.2604536134044
 42
0.1316524975873837
 10
559.402448670604
 20
602.0104536134044
 10
559.402448670604
 20
597.5271165575735
  0
LWPOLYLINE
  5
80
330
1F
100
AcDbEntity
  8
_DEFAULT_CAD_LAYER
 62
     2
370
    30
100
AcDbPolyline
 90
        3
 70
     0
 43
0.0
 10
559.5814882537851
 20
619.875430384235
 10
559.2325041525373
 20
621.130027073925
 10
559.2325041525373
 20
678.5793723896948
  0
INSERT
  5
81
330
1F
100
AcDbEntity
  8
_DEFAULT_CAD_LAYER
100
AcDbBlockReference
  2
block68
 10
483.4773328841635
 20
641.1687435557335
 30
0.0
  0
LWPOLYLINE
  5
82
330
1F
100
AcDbEntity
  8
_DEFAULT_CAD_LAYER
 62
   150
370
    15
100
AcDbPolyline
 90
        5
 70
     0
 43
0.0
 10
461.7404645563738
 20
651.1984215846521
 10
483.1734006928184
 20
651.1984215846521
 42
-0.3514705737248621
 10
483.5900688874119
 20
650.476731101718
 10
483.5900688874119
 20
643.906081875996
 10
482.9264634865978
 20
642.7566836056089
  0
LINE
  5
83
330
1F
100
AcDbEntity
  8
_DEFAULT_CAD_LAYER
  6
TinyDash
 62
     1
100
AcDbLine
 10
484.8523328841635
 20
650.6618343983567
 30
0.0
 11
484.8523328841635
 21
644.7854870645104
 31
0.0
  0
LINE
  5
84
330
1F
100
AcDbEntity
  8
_DEFAULT_CAD_LAYER
  6
TinyDash
 62
     1
100
AcDbLine
 10
482.1023328841635
 20
650.6618343983566
 30
0.0
 11
482.1023328841635
 21
644.6867249244457
 31
0.0
  0
INSERT
  5
85
330
1F
100
AcDbEntity
  8
_DEFAULT_CAD_LAYER
100
AcDbBlockReference
  2
block68
 10
602.1913364480815
 20
594.988722096814
 30
0.0
  0
LWPOLYLINE
  5
86
330
1F
100
AcDbEntity
  8
_DEFAULT_CAD_LAYER
 62
     2
370
    30
100
AcDbPolyline
 90
        6
 70
     0
 43
0.0
 10
608.1517161196375
 20
603.2309729372389
 10
603.6086527651826
 20
603.2309729372389
 42
0.2679491924311049
 10
603.1756400632904
 20
602.9809729372389
 10
602.7596480377182
 20
602.2604536134044
 42
0.1316524975873837
 10
602.6926607396103
 20
602.0104536134044
 10
602.6926607396103
 20
597.7553937107983
  0
SOLID
  5
87
330
1F
100
AcDbEntity
  8
_DEFAULT_CAD_LAYER
 62
   252
100
AcDbTrace
 10
470.0348894338962
 20
603.078285682985
 30
0.0
 11
470.2848894338962
 21
603.328285682985
 31
0.0
 12
472.0348894338962
 22
603.078285682985
 32
0.0
 13
471.7848894338962
 23
603.328285682985
 33
0.0
  0
SOLID
  5
88
330
1F
100
AcDbEntity
  8
_DEFAULT_CAD_LAYER
 62
   252
100
AcDbTrace
 10
470.0348894338962
 20
603.078285682985
 30
0.0
 11
472.0348894338962
 21
603.078285682985
 31
0.0
 12
471.7848894338962
 22
579.578285682985
 32
0.0
 13
472.0348894338962
 23
579.828285682985
 33
0.0
  0
SOLID
  5
89
330
1F
100
AcDbEntity
  8
_DEFAULT_CAD_LAYER
 62
   252
100
AcDbTrace
 10
470.0348894338962
 20
603.078285682985
 30
0.0
 11
471.7848894338962
 21
579.578285682985
 31
0.0
 12
470.0348894338962
 22
579.828285682985
 32
0.0
 13
470.2848894338962
 23
579.578285682985
 33
0.0
  0
LWPOLYLINE
  5
8A
330
1F
100
AcDbEntity
  8
_DEFAULT_CAD_LAYER
 62
     7
100
AcDbPolyline
 90
        8
 70
     1
 43
0.0
 10
470.2848894338962
 20
603.328285682985
 10
471.7848894338962
 20
603.328285682985
 10
472.0348894338962
 20
603.078285682985
 10
472.0348894338962
 20
579.828285682985
 10
471.7848894338962
 20
579.578285682985
 10
470.2848894338962
 20
579.578285682985
 10
470.0348894338962
 20
579.828285682985
 10
470.0348894338962
 20
603.078285682985
  0
SOLID
  5
8B
330
1F
100
AcDbEntity
  8
_DEFAULT_CAD_LAYER
 62
   252
100
AcDbTrace
 10
486.0348894338962
 20
603.078285682985
 30
0.0
 11
486.2848894338962
 21
603.328285682985
 31
0.0
 12
488.0348894338962
 22
603.078285682985
 32
0.0
 13
487.7848894338962
 23
603.328285682985
 33
0.0
  0
SOLID
  5
8C
330
1F
100
AcDbEntity
  8
_DEFAULT_CAD_LAYER
 62
   252
100
AcDbTrace
 10
486.0348894338962
 20
603.078285682985
 30
0.0
 11
488.0348894338962
 21
603.078285682985
 31
0.0
 12
487.7848894338962
 22
579.578285682985
 32
0.0
 13
488.0348894338962
 23
579.828285682985
 33
0.0
  0
SOLID
  5
8D
330
1F
100
AcDbEntity
  8
_DEFAULT_CAD_LAYER
 62
   252
100
AcDbTrace
 10
486.0348894338962
 20
603.078285682985
 30
0.0
 11
487.7848894338962
 21
579.578285682985
 31
0.0
 12
486.0348894338962
 22
579.828285682985
 32
0.0
 13
486.2848894338962
 23
579.578285682985
 33
0.0
  0
LWPOLYLINE
  5
8E
330
1F
100
AcDbEntity
  8
_DEFAULT_CAD_LAYER
 62
     7
100
AcDbPolyline
 90
        8
 70
     1
 43
0.0
 10
486.2848894338962
 20
603.328285682985
 10
487.7848894338962
 20
603.328285682985
 10
488.0348894338962
 20
603.078285682985
 10
488.0348894338962
 20
579.828285682985
 10
487.7848894338962
 20
579.578285682985
 10
486.2848894338962
 20
579.578285682985
 10
486.0348894338962
 20
579.828285682985
 10
486.0348894338962
 20
603.078285682985
  0
SOLID
  5
8F
330
1F
100
AcDbEntity
  8
_DEFAULT_CAD_LAYER
 62
   252
100
AcDbTrace
 10
502.0348894338962
 20
603.078285682985
 30
0.0
 11
502.2848894338962
 21
603.328285682985
 31
0.0
 12
504.0348894338962
 22
603.078285682985
 32
0.0
 13
503.7848894338962
 23
603.328285682985
 33
0.0
  0
SOLID
  5
90
330
1F
100
AcDbEntity
  8
_DEFAULT_CAD_LAYER
 62
   252
100
AcDbTrace
 10
502.0348894338962
 20
603.078285682985
 30
0.0
 11
504.0348894338962
 21
603.078285682985
 31
0.0
 12
503.7848894338962
 22
579.578285682985
 32
0.0
 13
504.0348894338962
 23
579.828285682985
 33
0.0
  0
SOLID
  5
91
330
1F
100
AcDbEntity
  8
_DEFAULT_CAD_LAYER
 62
   252
100
AcDbTrace
 10
502.0348894338962
 20
603.078285682985
 30
0.0
 11
503.7848894338962
 21
579.578285682985
 31
0.0
 12
502.0348894338962
 22
579.828285682985
 32
0.0
 13
502.2848894338962
 23
579.578285682985
 33
0.0
  0
LWPOLYLINE
  5
92
330
1F
100
AcDbEntity
  8
_DEFAULT_CAD_LAYER
 62
     7
100
AcDbPolyline
 90
        8
 70
     1
 43
0.0
 10
502.2848894338962
 20
603.328285682985
 10
503.7848894338962
 20
603.328285682985
 10
504.0348894338962
 20
603.078285682985
 10
504.0348894338962
 20
579.828285682985
 10
503.7848894338962
 20
579.578285682985
 10
502.2848894338962
 20
579.578285682985
 10
502.0348894338962
 20
579.828285682985
 10
502.0348894338962
 20
603.078285682985
  0
SOLID
  5
93
330
1F
100
AcDbEntity
  8
_DEFAULT_CAD_LAYER
 62
   252
100
AcDbTrace
 10
518.0348894338962
 20
603.078285682985
 30
0.0
 11
518.2848894338962
 21
603.328285682985
 31
0.0
 12
520.0348894338962
 22
603.078285682985
 32
0.0
 13
519.7848894338962
 23
603.328285682985
 33
0.0
  0
SOLID
  5
94
330
1F
100
AcDbEntity
  8
_DEFAULT_CAD_LAYER
 62
   252
100
AcDbTrace
 10
518.0348894338962
 20
603.078285682985
 30
0.0
 11
520.0348894338962
 21
603.078285682985
 31
0.0
 12
519.7848894338962
 22
579.578285682985
 32
0.0
 13
520.0348894338962
 23
579.828285682985
 33
0.0
  0
SOLID
  5
95
330
1F
100
AcDbEntity
  8
_DEFAULT_CAD_LAYER
 62
   252
100
AcDbTrace
 10
518.0348894338962
 20
603.078285682985
 30
0.0
 11
519.7848894338962
 21
579.578285682985
 31
0.0
 12
518.0348894338962
 22
579.828285682985
 32
0.0
 13
518.2848894338962
 23
579.578285682985
 33
0.0
  0
LWPOLYLINE
  5
96
330
1F
100
AcDbEntity
  8
_DEFAULT_CAD_LAYER
 62
     7
100
AcDbPolyline
 90
        8
 70
     1
 43
0.0
 10
518.2848894338962
 20
603.328285682985
 10
519.7848894338962
 20
603.328285682985
 10
520.0348894338962
 20
603.078285682985
 10
520.0348894338962
 20
579.828285682985
 10
519.7848894338962
 20
579.578285682985
 10
518.2848894338962
 20
579.578285682985
 10
518.0348894338962
 20
579.828285682985
 10
518.0348894338962
 20
603.078285682985
  0
SOLID
  5
97
330
1F
100
AcDbEntity
  8
_DEFAULT_CAD_LAYER
 62
   252
100
AcDbTrace
 10
534.0348894338962
 20
603.078285682985
 30
0.0
 11
534.2848894338962
 21
603.328285682985
 31
0.0
 12
536.0348894338962
 22
603.078285682985
 32
0.0
 13
535.7848894338962
 23
603.328285682985
 33
0.0
  0
SOLID
  5
98
330
1F
100
AcDbEntity
  8
_DEFAULT_CAD_LAYER
 62
   252
100
AcDbTrace
 10
534.0348894338962
 20
603.078285682985
 30
0.0
 11
536.0348894338962
 21
603.078285682985
 31
0.0
 12
535.7848894338962
 22
579.578285682985
 32
0.0
 13
536.0348894338962
 23
579.828285682985
 33
0.0
  0
SOLID
  5
99
330
1F
100
AcDbEntity
  8
_DEFAULT_CAD_LAYER
 62
   252
100
AcDbTrace
 10
534.0348894338962
 20
603.078285682985
 30
0.0
 11
535.7848894338962
 21
579.578285682985
 31
0.0
 12
534.0348894338962
 22
579.828285682985
 32
0.0
 13
534.2848894338962
 23
579.578285682985
 33
0.0
  0
LWPOLYLINE
  5
9A
330
1F
100
AcDbEntity
  8
_DEFAULT_CAD_LAYER
 62
     7
100
AcDbPolyline
 90
        8
 70
     1
 43
0.0
 10
534.2848894338962
 20
603.328285682985
 10
535.7848894338962
 20
603.328285682985
 10
536.0348894338962
 20
603.078285682985
 10
536.0348894338962
 20
579.828285682985
 10
535.7848894338962
 20
579.578285682985
 10
534.2848894338962
 20
579.578285682985
 10
534.0348894338962
 20
579.828285682985
 10
534.0348894338962
 20
603.078285682985
  0
SOLID
  5
9B
330
1F
100
AcDbEntity
  8
_DEFAULT_CAD_LAYER
 62
   252
100
AcDbTrace
 10
550.0348894338962
 20
603.078285682985
 30
0.0
 11
550.2848894338962
 21
603.328285682985
 31
0.0
 12
552.0348894338962
 22
603.078285682985
 32
0.0
 13
551.7848894338962
 23
603.328285682985
 33
0.0
  0
SOLID
  5
9C
330
1F
100
AcDbEntity
  8
_DEFAULT_CAD_LAYER
 62
   252
100
AcDbTrace
 10
550.0348894338962
 20
603.078285682985
 30
0.0
 11
552.0348894338962
 21
603.078285682985
 31
0.0
 12
551.7848894338962
 22
579.578285682985
 32
0.0
 13
552.0348894338962
 23
579.828285682985
 33
0.0
  0
SOLID
  5
9D
330
1F
100
AcDbEntity
  8
_DEFAULT_CAD_LAYER
 62
   252
100
AcDbTrace
 10
550.0348894338962
 20
603.078285682985
 30
0.0
 11
551.7848894338962
 21
579.578285682985
 31
0.0
 12
550.0348894338962
 22
579.828285682985
 32
0.0
 13
550.2848894338962
 23
579.578285682985
 33
0.0
  0
LWPOLYLINE
  5
9E
330
1F
100
AcDbEntity
  8
_DEFAULT_CAD_LAYER
 62
     7
100
AcDbPolyline
 90
        8
 70
     1
 43
0.0
 10
550.2848894338962
 20
603.328285682985
 10
551.7848894338962
 20
603.328285682985
 10
552.0348894338962
 20
603.078285682985
 10
552.0348894338962
 20
579.828285682985
 10
551.7848894338962
 20
579.578285682985
 10
550.2848894338962
 20
579.578285682985
 10
550.0348894338962
 20
579.828285682985
 10
550.0348894338962
 20
603.078285682985
  0
SOLID
  5
9F
330
1F
100
AcDbEntity
  8
_DEFAULT_CAD_LAYER
 62
   252
100
AcDbTrace
 10
566.0348894338962
 20
603.078285682985
 30
0.0
 11
566.2848894338962
 21
603.328285682985
 31
0.0
 12
568.0348894338962
 22
603.078285682985
 32
0.0
 13
567.7848894338962
 23
603.328285682985
 33
0.0
  0
SOLID
  5
A0
330
1F
100
AcDbEntity
  8
_DEFAULT_CAD_LAYER
 62
   252
100
AcDbTrace
 10
566.0348894338962
 20
603.078285682985
 30
0.0
 11
568.0348894338962
 21
603.078285682985
 31
0.0
 12
567.7848894338962
 22
579.578285682985
 32
0.0
 13
568.0348894338962
 23
579.828285682985
 33
0.0
  0
SOLID
  5
A1
330
1F
100
AcDbEntity
  8
_DEFAULT_CAD_LAYER
 62
   252
100
AcDbTrace
 10
566.0348894338962
 20
603.078285682985
 30
0.0
 11
567.7848894338962
 21
579.578285682985
 31
0.0
 12
566.0348894338962
 22
579.828285682985
 32
0.0
 13
566.2848894338962
 23
579.578285682985
 33
0.0
  0
LWPOLYLINE
  5
A2
330
1F
100
AcDbEntity
  8
_DEFAULT_CAD_LAYER
 62
     7
100
AcDbPolyline
 90
        8
 70
     1
 43
0.0
 10
566.2848894338962
 20
603.328285682985
 10
567.7848894338962
 20
603.328285682985
 10
568.0348894338962
 20
603.078285682985
 10
568.0348894338962
 20
579.828285682985
 10
567.7848894338962
 20
579.578285682985
 10
566.2848894338962
 20
579.578285682985
 10
566.0348894338962
 20
579.828285682985
 10
566.0348894338962
 20
603.078285682985
  0
SOLID
  5
A3
330
1F
100
AcDbEntity
  8
_DEFAULT_CAD_LAYER
 62
   252
100
AcDbTrace
 10
582.0348894338962
 20
603.078285682985
 30
0.0
 11
582.2848894338962
 21
603.328285682985
 31
0.0
 12
584.0348894338962
 22
603.078285682985
 32
0.0
 13
583.7848894338962
 23
603.328285682985
 33
0.0
  0
SOLID
  5
A4
330
1F
100
AcDbEntity
  8
_DEFAULT_CAD_LAYER
 62
   252
100
AcDbTrace
 10
582.0348894338962
 20
603.078285682985
 30
0.0
 11
584.0348894338962
 21
603.078285682985
 31
0.0
 12
583.7848894338962
 22
579.578285682985
 32
0.0
 13
584.0348894338962
 23
579.828285682985
 33
0.0
  0
SOLID
  5
A5
330
1F
100
AcDbEntity
  8
_DEFAULT_CAD_LAYER
 62
   252
100
AcDbTrace
 10
582.0348894338962
 20
603.078285682985
 30
0.0
 11
583.7848894338962
 21
579.578285682985
 31
0.0
 12
582.0348894338962
 22
579.828285682985
 32
0.0
 13
582.2848894338962
 23
579.578285682985
 33
0.0
  0
LWPOLYLINE
  5
A6
330
1F
100
AcDbEntity
  8
_DEFAULT_CAD_LAYER
 62
     7
100
AcDbPolyline
 90
        8
 70
     1
 43
0.0
 10
582.2848894338962
 20
603.328285682985
 10
583.7848894338962
 20
603.328285682985
 10
584.0348894338962
 20
603.078285682985
 10
584.0348894338962
 20
579.828285682985
 10
583.7848894338962
 20
579.578285682985
 10
582.2848894338962
 20
579.578285682985
 10
582.0348894338962
 20
579.828285682985
 10
582.0348894338962
 20
603.078285682985
  0
SOLID
  5
A7
330
1F
100
AcDbEntity
  8
_DEFAULT_CAD_LAYER
 62
   252
100
AcDbTrace
 10
598.0348894338962
 20
603.078285682985
 30
0.0
 11
598.2848894338962
 21
603.328285682985
 31
0.0
 12
600.0348894338962
 22
603.078285682985
 32
0.0
 13
599.7848894338962
 23
603.328285682985
 33
0.0
  0
SOLID
  5
A8
330
1F
100
AcDbEntity
  8
_DEFAULT_CAD_LAYER
 62
   252
100
AcDbTrace
 10
598.0348894338962
 20
603.078285682985
 30
0.0
 11
600.0348894338962
 21
603.078285682985
 31
0.0
 12
599.7848894338962
 22
579.578285682985
 32
0.0
 13
600.0348894338962
 23
579.828285682985
 33
0.0
  0
SOLID
  5
A9
330
1F
100
AcDbEntity
  8
_DEFAULT_CAD_LAYER
 62
   252
100
AcDbTrace
 10
598.0348894338962
 20
603.078285682985
 30
0.0
 11
599.7848894338962
 21
579.578285682985
 31
0.0
 12
598.0348894338962
 22
579.828285682985
 32
0.0
 13
598.2848894338962
 23
579.578285682985
 33
0.0
  0
LWPOLYLINE
  5
AA
330
1F
100
AcDbEntity
  8
_DEFAULT_CAD_LAYER
 62
     7
100
AcDbPolyline
 90
        8
 70
     1
 43
0.0
 10
598.2848894338962
 20
603.328285682985
 10
599.7848894338962
 20
603.328285682985
 10
600.0348894338962
 20
603.078285682985
 10
600.0348894338962
 20
579.828285682985
 10
599.7848894338962
 20
579.578285682985
 10
598.2848894338962
 20
579.578285682985
 10
598.0348894338962
 20
579.828285682985
 10
598.0348894338962
 20
603.078285682985
  0
SOLID
  5
AB
330
1F
100
AcDbEntity
  8
_DEFAULT_CAD_LAYER
 62
   252
100
AcDbTrace
 10
486.0348894338962
 20
627.0782856829851
 30
0.0
 11
486.2848894338962
 21
627.3282856829851
 31
0.0
 12
488.0348894338962
 22
627.0782856829851
 32
0.0
 13
487.7848894338962
 23
627.3282856829851
 33
0.0
  0
SOLID
  5
AC
330
1F
100
AcDbEntity
  8
_DEFAULT_CAD_LAYER
 62
   252
100
AcDbTrace
 10
486.0348894338962
 20
627.0782856829851
 30
0.0
 11
488.0348894338962
 21
627.0782856829851
 31
0.0
 12
487.7848894338962
 22
603.5782856829851
 32
0.0
 13
488.0348894338962
 23
603.8282856829851
 33
0.0
  0
SOLID
  5
AD
330
1F
100
AcDbEntity
  8
_DEFAULT_CAD_LAYER
 62
   252
100
AcDbTrace
 10
486.0348894338962
 20
627.0782856829851
 30
0.0
 11
487.7848894338962
 21
603.5782856829851
 31
0.0
 12
486.0348894338962
 22
603.8282856829851
 32
0.0
 13
486.2848894338962
 23
603.5782856829851
 33
0.0
  0
LWPOLYLINE
  5
AE
330
1F
100
AcDbEntity
  8
_DEFAULT_CAD_LAYER
 62
     7
100
AcDbPolyline
 90
        8
 70
     1
 43
0.0
 10
486.2848894338962
 20
627.3282856829851
 10
487.7848894338962
 20
627.3282856829851
 10
488.0348894338962
 20
627.0782856829851
 10
488.0348894338962
 20
603.8282856829851
 10
487.7848894338962
 20
603.5782856829851
 10
486.2848894338962
 20
603.5782856829851
 10
486.0348894338962
 20
603.8282856829851
 10
486.0348894338962
 20
627.0782856829851
  0
SOLID
  5
AF
330
1F
100
AcDbEntity
  8
_DEFAULT_CAD_LAYER
 62
   252
100
AcDbTrace
 10
534.0348894338962
 20
627.0782856829851
 30
0.0
 11
534.2848894338962
 21
627.3282856829851
 31
0.0
 12
536.0348894338962
 22
627.0782856829851
 32
0.0
 13
535.7848894338962
 23
627.3282856829851
 33
0.0
  0
SOLID
  5
B0
330
1F
100
AcDbEntity
  8
_DEFAULT_CAD_LAYER
 62
   252
100
AcDbTrace
 10
534.0348894338962
 20
627.0782856829851
 30
0.0
 11
536.0348894338962
 21
627.0782856829851
 31
0.0
 12
535.7848894338962
 22
603.5782856829851
 32
0.0
 13
536.0348894338962
 23
603.8282856829851
 33
0.0
  0
SOLID
  5
B1
330
1F
100
AcDbEntity
  8
_DEFAULT_CAD_LAYER
 62
   252
100
AcDbTrace
 10
534.0348894338962
 20
627.0782856829851
 30
0.0
 11
535.7848894338962
 21
603.5782856829851
 31
0.0
 12
534.0348894338962
 22
603.8282856829851
 32
0.0
 13
534.2848894338962
 23
603.5782856829851
 33
0.0
  0
LWPOLYLINE
  5
B2
330
1F
100
AcDbEntity
  8
_DEFAULT_CAD_LAYER
 62
     7
100
AcDbPolyline
 90
        8
 70
     1
 43
0.0
 10
534.2848894338962
 20
627.3282856829851
 10
535.7848894338962
 20
627.3282856829851
 10
536.0348894338962
 20
627.0782856829851
 10
536.0348894338962
 20
603.8282856829851
 10
535.7848894338962
 20
603.5782856829851
 10
534.2848894338962
 20
603.5782856829851
 10
534.0348894338962
 20
603.8282856829851
 10
534.0348894338962
 20
627.0782856829851
  0
SOLID
  5
B3
330
1F
100
AcDbEntity
  8
_DEFAULT_CAD_LAYER
 62
   252
100
AcDbTrace
 10
470.0348894338962
 20
627.0782856829851
 30
0.0
 11
470.2848894338962
 21
627.3282856829851
 31
0.0
 12
472.0348894338962
 22
627.0782856829851
 32
0.0
 13
471.7848894338962
 23
627.3282856829851
 33
0.0
  0
SOLID
  5
B4
330
1F
100
AcDbEntity
  8
_DEFAULT_CAD_LAYER
 62
   252
100
AcDbTrace
 10
470.0348894338962
 20
627.0782856829851
 30
0.0
 11
472.0348894338962
 21
627.0782856829851
 31
0.0
 12
471.7848894338962
 22
603.5782856829851
 32
0.0
 13
472.0348894338962
 23
603.8282856829851
 33
0.0
  0
SOLID
  5
B5
330
1F
100
AcDbEntity
  8
_DEFAULT_CAD_LAYER
 62
   252
100
AcDbTrace
 10
470.0348894338962
 20
627.0782856829851
 30
0.0
 11
471.7848894338962
 21
603.5782856829851
 31
0.0
 12
470.0348894338962
 22
603.8282856829851
 32
0.0
 13
470.2848894338962
 23
603.5782856829851
 33
0.0
  0
LWPOLYLINE
  5
B6
330
1F
100
AcDbEntity
  8
_DEFAULT_CAD_LAYER
 62
     7
100
AcDbPolyline
 90
        8
 70
     1
 43
0.0
 10
470.2848894338962
 20
627.3282856829851
 10
471.7848894338962
 20
627.3282856829851
 10
472.0348894338962
 20
627.0782856829851
 10
472.0348894338962
 20
603.8282856829851
 10
471.7848894338962
 20
603.5782856829851
 10
470.2848894338962
 20
603.5782856829851
 10
470.0348894338962
 20
603.8282856829851
 10
470.0348894338962
 20
627.0782856829851
  0
SOLID
  5
B7
330
1F
100
AcDbEntity
  8
_DEFAULT_CAD_LAYER
 62
   252
100
AcDbTrace
 10
502.0348894338962
 20
627.0782856829851
 30
0.0
 11
502.2848894338962
 21
627.3282856829851
 31
0.0
 12
504.0348894338962
 22
627.0782856829851
 32
0.0
 13
503.7848894338962
 23
627.3282856829851
 33
0.0
  0
SOLID
  5
B8
330
1F
100
AcDbEntity
  8
_DEFAULT_CAD_LAYER
 62
   252
100
AcDbTrace
 10
502.0348894338962
 20
627.0782856829851
 30
0.0
 11
504.0348894338962
 21
627.0782856829851
 31
0.0
 12
503.7848894338962
 22
603.5782856829851
 32
0.0
 13
504.0348894338962
 23
603.8282856829851
 33
0.0
  0
SOLID
  5
B9
330
1F
100
AcDbEntity
  8
_DEFAULT_CAD_LAYER
 62
   252
100
AcDbTrace
 10
502.0348894338962
 20
627.0782856829851
 30
0.0
 11
503.7848894338962
 21
603.5782856829851
 31
0.0
 12
502.0348894338962
 22
603.8282856829851
 32
0.0
 13
502.2848894338962
 23
603.5782856829851
 33
0.0
  0
LWPOLYLINE
  5
BA
330
1F
100
AcDbEntity
  8
_DEFAULT_CAD_LAYER
 62
     7
100
AcDbPolyline
 90
        8
 70
     1
 43
0.0
 10
502.2848894338962
 20
627.3282856829851
 10
503.7848894338962
 20
627.3282856829851
 10
504.0348894338962
 20
627.0782856829851
 10
504.0348894338962
 20
603.8282856829851
 10
503.7848894338962
 20
603.5782856829851
 10
502.2848894338962
 20
603.5782856829851
 10
502.0348894338962
 20
603.8282856829851
 10
502.0348894338962
 20
627.0782856829851
  0
SOLID
  5
BB
330
1F
100
AcDbEntity
  8
_DEFAULT_CAD_LAYER
 62
   252
100
AcDbTrace
 10
518.0348894338962
 20
627.0782856829851
 30
0.0
 11
518.2848894338962
 21
627.3282856829851
 31
0.0
 12
520.0348894338962
 22
627.0782856829851
 32
0.0
 13
519.7848894338962
 23
627.3282856829851
 33
0.0
  0
SOLID
  5
BC
330
1F
100
AcDbEntity
  8
_DEFAULT_CAD_LAYER
 62
   252
100
AcDbTrace
 10
518.0348894338962
 20
627.0782856829851
 30
0.0
 11
520.0348894338962
 21
627.0782856829851
 31
0.0
 12
519.7848894338962
 22
603.5782856829851
 32
0.0
 13
520.0348894338962
 23
603.8282856829851
 33
0.0
  0
SOLID
  5
BD
330
1F
100
AcDbEntity
  8
_DEFAULT_CAD_LAYER
 62
   252
100
AcDbTrace
 10
518.0348894338962
 20
627.0782856829851
 30
0.0
 11
519.7848894338962
 21
603.5782856829851
 31
0.0
 12
518.0348894338962
 22
603.8282856829851
 32
0.0
 13
518.2848894338962
 23
603.5782856829851
 33
0.0
  0
LWPOLYLINE
  5
BE
330
1F
100
AcDbEntity
  8
_DEFAULT_CAD_LAYER
 62
     7
100
AcDbPolyline
 90
        8
 70
     1
 43
0.0
 10
518.2848894338962
 20
627.3282856829851
 10
519.7848894338962
 20
627.3282856829851
 10
520.0348894338962
 20
627.0782856829851
 10
520.0348894338962
 20
603.8282856829851
 10
519.7848894338962
 20
603.5782856829851
 10
518.2848894338962
 20
603.5782856829851
 10
518.0348894338962
 20
603.8282856829851
 10
518.0348894338962
 20
627.0782856829851
  0
SOLID
  5
BF
330
1F
100
AcDbEntity
  8
_DEFAULT_CAD_LAYER
 62
   252
100
AcDbTrace
 10
598.0348894338962
 20
627.0782856829851
 30
0.0
 11
598.2848894338962
 21
627.3282856829851
 31
0.0
 12
600.0348894338962
 22
627.0782856829851
 32
0.0
 13
599.7848894338962
 23
627.3282856829851
 33
0.0
  0
SOLID
  5
C0
330
1F
100
AcDbEntity
  8
_DEFAULT_CAD_LAYER
 62
   252
100
AcDbTrace
 10
598.0348894338962
 20
627.0782856829851
 30
0.0
 11
600.0348894338962
 21
627.0782856829851
 31
0.0
 12
599.7848894338962
 22
603.5782856829851
 32
0.0
 13
600.0348894338962
 23
603.8282856829851
 33
0.0
  0
SOLID
  5
C1
330
1F
100
AcDbEntity
  8
_DEFAULT_CAD_LAYER
 62
   252
100
AcDbTrace
 10
598.0348894338962
 20
627.0782856829851
 30
0.0
 11
599.7848894338962
 21
603.5782856829851
 31
0.0
 12
598.0348894338962
 22
603.8282856829851
 32
0.0
 13
598.2848894338962
 23
603.5782856829851
 33
0.0
  0
LWPOLYLINE
  5
C2
330
1F
100
AcDbEntity
  8
_DEFAULT_CAD_LAYER
 62
     7
100
AcDbPolyline
 90
        8
 70
     1
 43
0.0
 10
598.2848894338962
 20
627.3282856829851
 10
599.7848894338962
 20
627.3282856829851
 10
600.0348894338962
 20
627.0782856829851
 10
600.0348894338962
 20
603.8282856829851
 10
599.7848894338962
 20
603.5782856829851
 10
598.2848894338962
 20
603.5782856829851
 10
598.0348894338962
 20
603.8282856829851
 10
598.0348894338962
 20
627.0782856829851
  0
SOLID
  5
C3
330
1F
100
AcDbEntity
  8
_DEFAULT_CAD_LAYER
 62
   252
100
AcDbTrace
 10
550.0348894338962
 20
627.0782856829851
 30
0.0
 11
550.2848894338962
 21
627.3282856829851
 31
0.0
 12
552.0348894338962
 22
627.0782856829851
 32
0.0
 13
551.7848894338962
 23
627.3282856829851
 33
0.0
  0
SOLID
  5
C4
330
1F
100
AcDbEntity
  8
_DEFAULT_CAD_LAYER
 62
   252
100
AcDbTrace
 10
550.0348894338962
 20
627.0782856829851
 30
0.0
 11
552.0348894338962
 21
627.0782856829851
 31
0.0
 12
551.7848894338962
 22
603.5782856829851
 32
0.0
 13
552.0348894338962
 23
603.8282856829851
 33
0.0
  0
SOLID
  5
C5
330
1F
100
AcDbEntity
  8
_DEFAULT_CAD_LAYER
 62
   252
100
AcDbTrace
 10
550.0348894338962
 20
627.0782856829851
 30
0.0
 11
551.7848894338962
 21
603.5782856829851
 31
0.0
 12
550.0348894338962
 22
603.8282856829851
 32
0.0
 13
550.2848894338962
 23
603.5782856829851
 33
0.0
  0
LWPOLYLINE
  5
C6
330
1F
100
AcDbEntity
  8
_DEFAULT_CAD_LAYER
 62
     7
100
AcDbPolyline
 90
        8
 70
     1
 43
0.0
 10
550.2848894338962
 20
627.3282856829851
 10
551.7848894338962
 20
627.3282856829851
 10
552.0348894338962
 20
627.0782856829851
 10
552.0348894338962
 20
603.8282856829851
 10
551.7848894338962
 20
603.5782856829851
 10
550.2848894338962
 20
603.5782856829851
 10
550.0348894338962
 20
603.8282856829851
 10
550.0348894338962
 20
627.0782856829851
  0
SOLID
  5
C7
330
1F
100
AcDbEntity
  8
_DEFAULT_CAD_LAYER
 62
   252
100
AcDbTrace
 10
582.0348894338962
 20
627.0782856829851
 30
0.0
 11
582.2848894338962
 21
627.3282856829851
 31
0.0
 12
584.0348894338962
 22
627.0782856829851
 32
0.0
 13
583.7848894338962
 23
627.3282856829851
 33
0.0
  0
SOLID
  5
C8
330
1F
100
AcDbEntity
  8
_DEFAULT_CAD_LAYER
 62
   252
100
AcDbTrace
 10
582.0348894338962
 20
627.0782856829851
 30
0.0
 11
584.0348894338962
 21
627.0782856829851
 31
0.0
 12
583.7848894338962
 22
603.5782856829851
 32
0.0
 13
584.0348894338962
 23
603.8282856829851
 33
0.0
  0
SOLID
  5
C9
330
1F
100
AcDbEntity
  8
_DEFAULT_CAD_LAYER
 62
   252
100
AcDbTrace
 10
582.0348894338962
 20
627.0782856829851
 30
0.0
 11
583.7848894338962
 21
603.5782856829851
 31
0.0
 12
582.0348894338962
 22
603.8282856829851
 32
0.0
 13
582.2848894338962
 23
603.5782856829851
 33
0.0
  0
LWPOLYLINE
  5
CA
330
1F
100
AcDbEntity
  8
_DEFAULT_CAD_LAYER
 62
     7
100
AcDbPolyline
 90
        8
 70
     1
 43
0.0
 10
582.2848894338962
 20
627.3282856829851
 10
583.7848894338962
 20
627.3282856829851
 10
584.0348894338962
 20
627.0782856829851
 10
584.0348894338962
 20
603.8282856829851
 10
583.7848894338962
 20
603.5782856829851
 10
582.2848894338962
 20
603.5782856829851
 10
582.0348894338962
 20
603.8282856829851
 10
582.0348894338962
 20
627.0782856829851
  0
SOLID
  5
CB
330
1F
100
AcDbEntity
  8
_DEFAULT_CAD_LAYER
 62
   252
100
AcDbTrace
 10
566.0348894338962
 20
627.0782856829851
 30
0.0
 11
566.2848894338962
 21
627.3282856829851
 31
0.0
 12
568.0348894338962
 22
627.0782856829851
 32
0.0
 13
567.7848894338962
 23
627.3282856829851
 33
0.0
  0
SOLID
  5
CC
330
1F
100
AcDbEntity
  8
_DEFAULT_CAD_LAYER
 62
   252
100
AcDbTrace
 10
566.0348894338962
 20
627.0782856829851
 30
0.0
 11
568.0348894338962
 21
627.0782856829851
 31
0.0
 12
567.7848894338962
 22
603.5782856829851
 32
0.0
 13
568.0348894338962
 23
603.8282856829851
 33
0.0
  0
SOLID
  5
CD
330
1F
100
AcDbEntity
  8
_DEFAULT_CAD_LAYER
 62
   252
100
AcDbTrace
 10
566.0348894338962
 20
627.0782856829851
 30
0.0
 11
567.7848894338962
 21
603.5782856829851
 31
0.0
 12
566.0348894338962
 22
603.8282856829851
 32
0.0
 13
566.2848894338962
 23
603.5782856829851
 33
0.0
  0
LWPOLYLINE
  5
CE
330
1F
100
AcDbEntity
  8
_DEFAULT_CAD_LAYER
 62
     7
100
AcDbPolyline
 90
        8
 70
     1
 43
0.0
 10
566.2848894338962
 20
627.3282856829851
 10
567.7848894338962
 20
627.3282856829851
 10
568.0348894338962
 20
627.0782856829851
 10
568.0348894338962
 20
603.8282856829851
 10
567.7848894338962
 20
603.5782856829851
 10
566.2848894338962
 20
603.5782856829851
 10
566.0348894338962
 20
603.8282856829851
 10
566.0348894338962
 20
627.0782856829851
  0
SOLID
  5
CF
330
1F
100
AcDbEntity
  8
_DEFAULT_CAD_LAYER
 62
   252
100
AcDbTrace
 10
486.0747916633782
 20
651.0959483542672
 30
0.0
 11
486.3247916633782
 21
651.3459483542672
 31
0.0
 12
488.0747916633782
 22
651.0959483542672
 32
0.0
 13
487.8247916633782
 23
651.3459483542672
 33
0.0
  0
SOLID
  5
D0
330
1F
100
AcDbEntity
  8
_DEFAULT_CAD_LAYER
 62
   252
100
AcDbTrace
 10
486.0747916633782
 20
651.0959483542672
 30
0.0
 11
488.0747916633782
 21
651.0959483542672
 31
0.0
 12
487.8247916633782
 22
627.5959483542672
 32
0.0
 13
488.0747916633782
 23
627.8459483542672
 33
0.0
  0
SOLID
  5
D1
330
1F
100
AcDbEntity
  8
_DEFAULT_CAD_LAYER
 62
   252
100
AcDbTrace
 10
486.0747916633782
 20
651.0959483542672
 30
0.0
 11
487.8247916633782
 21
627.5959483542672
 31
0.0
 12
486.0747916633782
 22
627.8459483542672
 32
0.0
 13
486.3247916633782
 23
627.5959483542672
 33
0.0
  0
LWPOLYLINE
  5
D2
330
1F
100
AcDbEntity
  8
_DEFAULT_CAD_LAYER
 62
     7
100
AcDbPolyline
 90
        8
 70
     1
 43
0.0
 10
486.3247916633782
 20
651.3459483542672
 10
487.8247916633782
 20
651.3459483542672
 10
488.0747916633782
 20
651.0959483542672
 10
488.0747916633782
 20
627.8459483542672
 10
487.8247916633782
 20
627.5959483542672
 10
486.3247916633782
 20
627.5959483542672
 10
486.0747916633782
 20
627.8459483542672
 10
486.0747916633782
 20
651.0959483542672
  0
SOLID
  5
D3
330
1F
100
AcDbEntity
  8
_DEFAULT_CAD_LAYER
 62
   252
100
AcDbTrace
 10
534.0348894338962
 20
651.078285682985
 30
0.0
 11
534.2848894338962
 21
651.328285682985
 31
0.0
 12
536.0348894338962
 22
651.078285682985
 32
0.0
 13
535.7848894338962
 23
651.328285682985
 33
0.0
  0
SOLID
  5
D4
330
1F
100
AcDbEntity
  8
_DEFAULT_CAD_LAYER
 62
   252
100
AcDbTrace
 10
534.0348894338962
 20
651.078285682985
 30
0.0
 11
536.0348894338962
 21
651.078285682985
 31
0.0
 12
535.7848894338962
 22
627.578285682985
 32
0.0
 13
536.0348894338962
 23
627.828285682985
 33
0.0
  0
SOLID
  5
D5
330
1F
100
AcDbEntity
  8
_DEFAULT_CAD_LAYER
 62
   252
100
AcDbTrace
 10
534.0348894338962
 20
651.078285682985
 30
0.0
 11
535.7848894338962
 21
627.578285682985
 31
0.0
 12
534.0348894338962
 22
627.828285682985
 32
0.0
 13
534.2848894338962
 23
627.578285682985
 33
0.0
  0
LWPOLYLINE
  5
D6
330
1F
100
AcDbEntity
  8
_DEFAULT_CAD_LAYER
 62
     7
100
AcDbPolyline
 90
        8
 70
     1
 43
0.0
 10
534.2848894338962
 20
651.328285682985
 10
535.7848894338962
 20
651.328285682985
 10
536.0348894338962
 20
651.078285682985
 10
536.0348894338962
 20
627.828285682985
 10
535.7848894338962
 20
627.578285682985
 10
534.2848894338962
 20
627.578285682985
 10
534.0348894338962
 20
627.828285682985
 10
534.0348894338962
 20
651.078285682985
  0
SOLID
  5
D7
330
1F
100
AcDbEntity
  8
_DEFAULT_CAD_LAYER
 62
   252
100
AcDbTrace
 10
470.0348894338962
 20
651.078285682985
 30
0.0
 11
470.2848894338962
 21
651.328285682985
 31
0.0
 12
472.0348894338962
 22
651.078285682985
 32
0.0
 13
471.7848894338962
 23
651.328285682985
 33
0.0
  0
SOLID
  5
D8
330
1F
100
AcDbEntity
  8
_DEFAULT_CAD_LAYER
 62
   252
100
AcDbTrace
 10
470.0348894338962
 20
651.078285682985
 30
0.0
 11
472.0348894338962
 21
651.078285682985
 31
0.0
 12
471.7848894338962
 22
627.578285682985
 32
0.0
 13
472.0348894338962
 23
627.828285682985
 33
0.0
  0
SOLID
  5
D9
330
1F
100
AcDbEntity
  8
_DEFAULT_CAD_LAYER
 62
   252
100
AcDbTrace
 10
470.0348894338962
 20
651.078285682985
 30
0.0
 11
471.7848894338962
 21
627.578285682985
 31
0.0
 12
470.0348894338962
 22
627.828285682985
 32
0.0
 13
470.2848894338962
 23
627.578285682985
 33
0.0
  0
LWPOLYLINE
  5
DA
330
1F
100
AcDbEntity
  8
_DEFAULT_CAD_LAYER
 62
     7
100
AcDbPolyline
 90
        8
 70
     1
 43
0.0
 10
470.2848894338962
 20
651.328285682985
 10
471.7848894338962
 20
651.328285682985
 10
472.0348894338962
 20
651.078285682985
 10
472.0348894338962
 20
627.828285682985
 10
471.7848894338962
 20
627.578285682985
 10
470.2848894338962
 20
627.578285682985
 10
470.0348894338962
 20
627.828285682985
 10
470.0348894338962
 20
651.078285682985
  0
SOLID
  5
DB
330
1F
100
AcDbEntity
  8
_DEFAULT_CAD_LAYER
 62
   252
100
AcDbTrace
 10
502.0348894338962
 20
651.078285682985
 30
0.0
 11
502.2848894338962
 21
651.328285682985
 31
0.0
 12
504.0348894338962
 22
651.078285682985
 32
0.0
 13
503.7848894338962
 23
651.328285682985
 33
0.0
  0
SOLID
  5
DC
330
1F
100
AcDbEntity
  8
_DEFAULT_CAD_LAYER
 62
   252
100
AcDbTrace
 10
502.0348894338962
 20
651.078285682985
 30
0.0
 11
504.0348894338962
 21
651.078285682985
 31
0.0
 12
503.7848894338962
 22
627.578285682985
 32
0.0
 13
504.0348894338962
 23
627.828285682985
 33
0.0
  0
SOLID
  5
DD
330
1F
100
AcDbEntity
  8
_DEFAULT_CAD_LAYER
 62
   252
100
AcDbTrace
 10
502.0348894338962
 20
651.078285682985
 30
0.0
 11
503.7848894338962
 21
627.578285682985
 31
0.0
 12
502.0348894338962
 22
627.828285682985
 32
0.0
 13
502.2848894338962
 23
627.578285682985
 33
0.0
  0
LWPOLYLINE
  5
DE
330
1F
100
AcDbEntity
  8
_DEFAULT_CAD_LAYER
 62
     7
100
AcDbPolyline
 90
        8
 70
     1
 43
0.0
 10
502.2848894338962
 20
651.328285682985
 10
503.7848894338962
 20
651.328285682985
 10
504.0348894338962
 20
651.078285682985
 10
504.0348894338962
 20
627.828285682985
 10
503.7848894338962
 20
627.578285682985
 10
502.2848894338962
 20
627.578285682985
 10
502.0348894338962
 20
627.828285682985
 10
502.0348894338962
 20
651.078285682985
  0
SOLID
  5
DF
330
1F
100
AcDbEntity
  8
_DEFAULT_CAD_LAYER
 62
   252
100
AcDbTrace
 10
518.0348894338962
 20
651.078285682985
 30
0.0
 11
518.2848894338962
 21
651.328285682985
 31
0.0
 12
520.0348894338962
 22
651.078285682985
 32
0.0
 13
519.7848894338962
 23
651.328285682985
 33
0.0
  0
SOLID
  5
E0
330
1F
100
AcDbEntity
  8
_DEFAULT_CAD_LAYER
 62
   252
100
AcDbTrace
 10
518.0348894338962
 20
651.078285682985
 30
0.0
 11
520.0348894338962
 21
651.078285682985
 31
0.0
 12
519.7848894338962
 22
627.578285682985
 32
0.0
 13
520.0348894338962
 23
627.828285682985
 33
0.0
  0
SOLID
  5
E1
330
1F
100
AcDbEntity
  8
_DEFAULT_CAD_LAYER
 62
   252
100
AcDbTrace
 10
518.0348894338962
 20
651.078285682985
 30
0.0
 11
519.7848894338962
 21
627.578285682985
 31
0.0
 12
518.0348894338962
 22
627.828285682985
 32
0.0
 13
518.2848894338962
 23
627.578285682985
 33
0.0
  0
LWPOLYLINE
  5
E2
330
1F
100
AcDbEntity
  8
_DEFAULT_CAD_LAYER
 62
     7
100
AcDbPolyline
 90
        8
 70
     1
 43
0.0
 10
518.2848894338962
 20
651.328285682985
 10
519.7848894338962
 20
651.328285682985
 10
520.0348894338962
 20
651.078285682985
 10
520.0348894338962
 20
627.828285682985
 10
519.7848894338962
 20
627.578285682985
 10
518.2848894338962
 20
627.578285682985
 10
518.0348894338962
 20
627.828285682985
 10
518.0348894338962
 20
651.078285682985
  0
SOLID
  5
E3
330
1F
100
AcDbEntity
  8
_DEFAULT_CAD_LAYER
 62
   252
100
AcDbTrace
 10
598.0348894338962
 20
651.078285682985
 30
0.0
 11
598.2848894338962
 21
651.328285682985
 31
0.0
 12
600.0348894338962
 22
651.078285682985
 32
0.0
 13
599.7848894338962
 23
651.328285682985
 33
0.0
  0
SOLID
  5
E4
330
1F
100
AcDbEntity
  8
_DEFAULT_CAD_LAYER
 62
   252
100
AcDbTrace
 10
598.0348894338962
 20
651.078285682985
 30
0.0
 11
600.0348894338962
 21
651.078285682985
 31
0.0
 12
599.7848894338962
 22
627.578285682985
 32
0.0
 13
600.0348894338962
 23
627.828285682985
 33
0.0
  0
SOLID
  5
E5
330
1F
100
AcDbEntity
  8
_DEFAULT_CAD_LAYER
 62
   252
100
AcDbTrace
 10
598.0348894338962
 20
651.078285682985
 30
0.0
 11
599.7848894338962
 21
627.578285682985
 31
0.0
 12
598.0348894338962
 22
627.828285682985
 32
0.0
 13
598.2848894338962
 23
627.578285682985
 33
0.0
  0
LWPOLYLINE
  5
E6
330
1F
100
AcDbEntity
  8
_DEFAULT_CAD_LAYER
 62
     7
100
AcDbPolyline
 90
        8
 70
     1
 43
0.0
 10
598.2848894338962
 20
651.328285682985
 10
599.7848894338962
 20
651.328285682985
 10
600.0348894338962
 20
651.078285682985
 10
600.0348894338962
 20
627.828285682985
 10
599.7848894338962
 20
627.578285682985
 10
598.2848894338962
 20
627.578285682985
 10
598.0348894338962
 20
627.828285682985
 10
598.0348894338962
 20
651.078285682985
  0
SOLID
  5
E7
330
1F
100
AcDbEntity
  8
_DEFAULT_CAD_LAYER
 62
   252
100
AcDbTrace
 10
550.0348894338962
 20
651.078285682985
 30
0.0
 11
550.2848894338962
 21
651.328285682985
 31
0.0
 12
552.0348894338962
 22
651.078285682985
 32
0.0
 13
551.7848894338962
 23
651.328285682985
 33
0.0
  0
SOLID
  5
E8
330
1F
100
AcDbEntity
  8
_DEFAULT_CAD_LAYER
 62
   252
100
AcDbTrace
 10
550.0348894338962
 20
651.078285682985
 30
0.0
 11
552.0348894338962
 21
651.078285682985
 31
0.0
 12
551.7848894338962
 22
627.578285682985
 32
0.0
 13
552.0348894338962
 23
627.828285682985
 33
0.0
  0
SOLID
  5
E9
330
1F
100
AcDbEntity
  8
_DEFAULT_CAD_LAYER
 62
   252
100
AcDbTrace
 10
550.0348894338962
 20
651.078285682985
 30
0.0
 11
551.7848894338962
 21
627.578285682985
 31
0.0
 12
550.0348894338962
 22
627.828285682985
 32
0.0
 13
550.2848894338962
 23
627.578285682985
 33
0.0
  0
LWPOLYLINE
  5
EA
330
1F
100
AcDbEntity
  8
_DEFAULT_CAD_LAYER
 62
     7
100
AcDbPolyline
 90
        8
 70
     1
 43
0.0
 10
550.2848894338962
 20
651.328285682985
 10
551.7848894338962
 20
651.328285682985
 10
552.0348894338962
 20
651.078285682985
 10
552.0348894338962
 20
627.828285682985
 10
551.7848894338962
 20
627.578285682985
 10
550.2848894338962
 20
627.578285682985
 10
550.0348894338962
 20
627.828285682985
 10
550.0348894338962
 20
651.078285682985
  0
SOLID
  5
EB
330
1F
100
AcDbEntity
  8
_DEFAULT_CAD_LAYER
 62
   252
100
AcDbTrace
 10
582.0348894338962
 20
651.078285682985
 30
0.0
 11
582.2848894338962
 21
651.328285682985
 31
0.0
 12
584.0348894338962
 22
651.078285682985
 32
0.0
 13
583.7848894338962
 23
651.328285682985
 33
0.0
  0
SOLID
  5
EC
330
1F
100
AcDbEntity
  8
_DEFAULT_CAD_LAYER
 62
   252
100
AcDbTrace
 10
582.0348894338962
 20
651.078285682985
 30
0.0
 11
584.0348894338962
 21
651.078285682985
 31
0.0
 12
583.7848894338962
 22
627.578285682985
 32
0.0
 13
584.0348894338962
 23
627.828285682985
 33
0.0
  0
SOLID
  5
ED
330
1F
100
AcDbEntity
  8
_DEFAULT_CAD_LAYER
 62
   252
100
AcDbTrace
 10
582.0348894338962
 20
651.078285682985
 30
0.0
 11
583.7848894338962
 21
627.578285682985
 31
0.0
 12
582.0348894338962
 22
627.828285682985
 32
0.0
 13
582.2848894338962
 23
627.578285682985
 33
0.0
  0
LWPOLYLINE
  5
EE
330
1F
100
AcDbEntity
  8
_DEFAULT_CAD_LAYER
 62
     7
100
AcDbPolyline
 90
        8
 70
     1
 43
0.0
 10
582.2848894338962
 20
651.328285682985
 10
583.7848894338962
 20
651.328285682985
 10
584.0348894338962
 20
651.078285682985
 10
584.0348894338962
 20
627.828285682985
 10
583.7848894338962
 20
627.578285682985
 10
582.2848894338962
 20
627.578285682985
 10
582.0348894338962
 20
627.828285682985
 10
582.0348894338962
 20
651.078285682985
  0
SOLID
  5
EF
330
1F
100
AcDbEntity
  8
_DEFAULT_CAD_LAYER
 62
   252
100
AcDbTrace
 10
566.0348894338962
 20
651.0782856829851
 30
0.0
 11
566.2848894338962
 21
651.3282856829851
 31
0.0
 12
568.0348894338962
 22
651.0782856829851
 32
0.0
 13
567.7848894338962
 23
651.3282856829851
 33
0.0
  0
SOLID
  5
F0
330
1F
100
AcDbEntity
  8
_DEFAULT_CAD_LAYER
 62
   252
100
AcDbTrace
 10
566.0348894338962
 20
651.0782856829851
 30
0.0
 11
568.0348894338962
 21
651.0782856829851
 31
0.0
 12
567.7848894338962
 22
627.5782856829851
 32
0.0
 13
568.0348894338962
 23
627.8282856829851
 33
0.0
  0
SOLID
  5
F1
330
1F
100
AcDbEntity
  8
_DEFAULT_CAD_LAYER
 62
   252
100
AcDbTrace
 10
566.0348894338962
 20
651.0782856829851
 30
0.0
 11
567.7848894338962
 21
627.5782856829851
 31
0.0
 12
566.0348894338962
 22
627.8282856829851
 32
0.0
 13
566.2848894338962
 23
627.5782856829851
 33
0.0
  0
LWPOLYLINE
  5
F2
330
1F
100
AcDbEntity
  8
_DEFAULT_CAD_LAYER
 62
     7
100
AcDbPolyline
 90
        8
 70
     1
 43
0.0
 10
566.2848894338962
 20
651.3282856829851
 10
567.7848894338962
 20
651.3282856829851
 10
568.0348894338962
 20
651.0782856829851
 10
568.0348894338962
 20
627.8282856829851
 10
567.7848894338962
 20
627.5782856829851
 10
566.2848894338962
 20
627.5782856829851
 10
566.0348894338962
 20
627.8282856829851
 10
566.0348894338962
 20
651.0782856829851
  0
SOLID
  5
F3
330
1F
100
AcDbEntity
  8
_DEFAULT_CAD_LAYER
 62
   252
100
AcDbTrace
 10
486.0348894338962
 20
675.078285682985
 30
0.0
 11
486.2848894338962
 21
675.328285682985
 31
0.0
 12
488.0348894338962
 22
675.078285682985
 32
0.0
 13
487.7848894338962
 23
675.328285682985
 33
0.0
  0
SOLID
  5
F4
330
1F
100
AcDbEntity
  8
_DEFAULT_CAD_LAYER
 62
   252
100
AcDbTrace
 10
486.0348894338962
 20
675.078285682985
 30
0.0
 11
488.0348894338962
 21
675.078285682985
 31
0.0
 12
487.7848894338962
 22
651.578285682985
 32
0.0
 13
488.0348894338962
 23
651.828285682985
 33
0.0
  0
SOLID
  5
F5
330
1F
100
AcDbEntity
  8
_DEFAULT_CAD_LAYER
 62
   252
100
AcDbTrace
 10
486.0348894338962
 20
675.078285682985
 30
0.0
 11
487.7848894338962
 21
651.578285682985
 31
0.0
 12
486.0348894338962
 22
651.828285682985
 32
0.0
 13
486.2848894338962
 23
651.578285682985
 33
0.0
  0
LWPOLYLINE
  5
F6
330
1F
100
AcDbEntity
  8
_DEFAULT_CAD_LAYER
 62
     7
100
AcDbPolyline
 90
        8
 70
     1
 43
0.0
 10
486.2848894338962
 20
675.328285682985
 10
487.7848894338962
 20
675.328285682985
 10
488.0348894338962
 20
675.078285682985
 10
488.0348894338962
 20
651.828285682985
 10
487.7848894338962
 20
651.578285682985
 10
486.2848894338962
 20
651.578285682985
 10
486.0348894338962
 20
651.828285682985
 10
486.0348894338962
 20
675.078285682985
  0
SOLID
  5
F7
330
1F
100
AcDbEntity
  8
_DEFAULT_CAD_LAYER
 62
   252
100
AcDbTrace
 10
534.0348894338962
 20
675.078285682985
 30
0.0
 11
534.2848894338962
 21
675.328285682985
 31
0.0
 12
536.0348894338962
 22
675.078285682985
 32
0.0
 13
535.7848894338962
 23
675.328285682985
 33
0.0
  0
SOLID
  5
F8
330
1F
100
AcDbEntity
  8
_DEFAULT_CAD_LAYER
 62
   252
100
AcDbTrace
 10
534.0348894338962
 20
675.078285682985
 30
0.0
 11
536.0348894338962
 21
675.078285682985
 31
0.0
 12
535.7848894338962
 22
651.578285682985
 32
0.0
 13
536.0348894338962
 23
651.828285682985
 33
0.0
  0
SOLID
  5
F9
330
1F
100
AcDbEntity
  8
_DEFAULT_CAD_LAYER
 62
   252
100
AcDbTrace
 10
534.0348894338962
 20
675.078285682985
 30
0.0
 11
535.7848894338962
 21
651.578285682985
 31
0.0
 12
534.0348894338962
 22
651.828285682985
 32
0.0
 13
534.2848894338962
 23
651.578285682985
 33
0.0
  0
LWPOLYLINE
  5
FA
330
1F
100
AcDbEntity
  8
_DEFAULT_CAD_LAYER
 62
     7
100
AcDbPolyline
 90
        8
 70
     1
 43
0.0
 10
534.2848894338962
 20
675.328285682985
 10
535.7848894338962
 20
675.328285682985
 10
536.0348894338962
 20
675.078285682985
 10
536.0348894338962
 20
651.828285682985
 10
535.7848894338962
 20
651.578285682985
 10
534.2848894338962
 20
651.578285682985
 10
534.0348894338962
 20
651.828285682985
 10
534.0348894338962
 20
675.078285682985
  0
SOLID
  5
FB
330
1F
100
AcDbEntity
  8
_DEFAULT_CAD_LAYER
 62
   252
100
AcDbTrace
 10
470.0348894338962
 20
675.078285682985
 30
0.0
 11
470.2848894338962
 21
675.328285682985
 31
0.0
 12
472.0348894338962
 22
675.078285682985
 32
0.0
 13
471.7848894338962
 23
675.328285682985
 33
0.0
  0
SOLID
  5
FC
330
1F
100
AcDbEntity
  8
_DEFAULT_CAD_LAYER
 62
   252
100
AcDbTrace
 10
470.0348894338962
 20
675.078285682985
 30
0.0
 11
472.0348894338962
 21
675.078285682985
 31
0.0
 12
471.7848894338962
 22
651.578285682985
 32
0.0
 13
472.0348894338962
 23
651.828285682985
 33
0.0
  0
SOLID
  5
FD
330
1F
100
AcDbEntity
  8
_DEFAULT_CAD_LAYER
 62
   252
100
AcDbTrace
 10
470.0348894338962
 20
675.078285682985
 30
0.0
 11
471.7848894338962
 21
651.578285682985
 31
0.0
 12
470.0348894338962
 22
651.828285682985
 32
0.0
 13
470.2848894338962
 23
651.578285682985
 33
0.0
  0
LWPOLYLINE
  5
FE
330
1F
100
AcDbEntity
  8
_DEFAULT_CAD_LAYER
 62
     7
100
AcDbPolyline
 90
        8
 70
     1
 43
0.0
 10
470.2848894338962
 20
675.328285682985
 10
471.7848894338962
 20
675.328285682985
 10
472.0348894338962
 20
675.078285682985
 10
472.0348894338962
 20
651.828285682985
 10
471.7848894338962
 20
651.578285682985
 10
470.2848894338962
 20
651.578285682985
 10
470.0348894338962
 20
651.828285682985
 10
470.0348894338962
 20
675.078285682985
  0
SOLID
  5
FF
330
1F
100
AcDbEntity
  8
_DEFAULT_CAD_LAYER
 62
   252
100
AcDbTrace
 10
502.0348894338962
 20
675.078285682985
 30
0.0
 11
502.2848894338962
 21
675.328285682985
 31
0.0
 12
504.0348894338962
 22
675.078285682985
 32
0.0
 13
503.7848894338962
 23
675.328285682985
 33
0.0
  0
SOLID
  5
100
330
1F
100
AcDbEntity
  8
_DEFAULT_CAD_LAYER
 62
   252
100
AcDbTrace
 10
502.0348894338962
 20
675.078285682985
 30
0.0
 11
504.0348894338962
 21
675.078285682985
 31
0.0
 12
503.7848894338962
 22
651.578285682985
 32
0.0
 13
504.0348894338962
 23
651.828285682985
 33
0.0
  0
SOLID
  5
101
330
1F
100
AcDbEntity
  8
_DEFAULT_CAD_LAYER
 62
   252
100
AcDbTrace
 10
502.0348894338962
 20
675.078285682985
 30
0.0
 11
503.7848894338962
 21
651.578285682985
 31
0.0
 12
502.0348894338962
 22
651.828285682985
 32
0.0
 13
502.2848894338962
 23
651.578285682985
 33
0.0
  0
LWPOLYLINE
  5
102
330
1F
100
AcDbEntity
  8
_DEFAULT_CAD_LAYER
 62
     7
100
AcDbPolyline
 90
        8
 70
     1
 43
0.0
 10
502.2848894338962
 20
675.328285682985
 10
503.7848894338962
 20
675.328285682985
 10
504.0348894338962
 20
675.078285682985
 10
504.0348894338962
 20
651.828285682985
 10
503.7848894338962
 20
651.578285682985
 10
502.2848894338962
 20
651.578285682985
 10
502.0348894338962
 20
651.828285682985
 10
502.0348894338962
 20
675.078285682985
  0
SOLID
  5
103
330
1F
100
AcDbEntity
  8
_DEFAULT_CAD_LAYER
 62
   252
100
AcDbTrace
 10
518.0348894338962
 20
675.078285682985
 30
0.0
 11
518.2848894338962
 21
675.328285682985
 31
0.0
 12
520.0348894338962
 22
675.078285682985
 32
0.0
 13
519.7848894338962
 23
675.328285682985
 33
0.0
  0
SOLID
  5
104
330
1F
100
AcDbEntity
  8
_DEFAULT_CAD_LAYER
 62
   252
100
AcDbTrace
 10
518.0348894338962
 20
675.078285682985
 30
0.0
 11
520.0348894338962
 21
675.078285682985
 31
0.0
 12
519.7848894338962
 22
651.578285682985
 32
0.0
 13
520.0348894338962
 23
651.828285682985
 33
0.0
  0
SOLID
  5
105
330
1F
100
AcDbEntity
  8
_DEFAULT_CAD_LAYER
 62
   252
100
AcDbTrace
 10
518.0348894338962
 20
675.078285682985
 30
0.0
 11
519.7848894338962
 21
651.578285682985
 31
0.0
 12
518.0348894338962
 22
651.828285682985
 32
0.0
 13
518.2848894338962
 23
651.578285682985
 33
0.0
  0
LWPOLYLINE
  5
106
330
1F
100
AcDbEntity
  8
_DEFAULT_CAD_LAYER
 62
     7
100
AcDbPolyline
 90
        8
 70
     1
 43
0.0
 10
518.2848894338962
 20
675.328285682985
 10
519.7848894338962
 20
675.328285682985
 10
520.0348894338962
 20
675.078285682985
 10
520.0348894338962
 20
651.828285682985
 10
519.7848894338962
 20
651.578285682985
 10
518.2848894338962
 20
651.578285682985
 10
518.0348894338962
 20
651.828285682985
 10
518.0348894338962
 20
675.078285682985
  0
SOLID
  5
107
330
1F
100
AcDbEntity
  8
_DEFAULT_CAD_LAYER
 62
   252
100
AcDbTrace
 10
598.0348894338962
 20
675.078285682985
 30
0.0
 11
598.2848894338962
 21
675.328285682985
 31
0.0
 12
600.0348894338962
 22
675.078285682985
 32
0.0
 13
599.7848894338962
 23
675.328285682985
 33
0.0
  0
SOLID
  5
108
330
1F
100
AcDbEntity
  8
_DEFAULT_CAD_LAYER
 62
   252
100
AcDbTrace
 10
598.0348894338962
 20
675.078285682985
 30
0.0
 11
600.0348894338962
 21
675.078285682985
 31
0.0
 12
599.7848894338962
 22
651.578285682985
 32
0.0
 13
600.0348894338962
 23
651.828285682985
 33
0.0
  0
SOLID
  5
109
330
1F
100
AcDbEntity
  8
_DEFAULT_CAD_LAYER
 62
   252
100
AcDbTrace
 10
598.0348894338962
 20
675.078285682985
 30
0.0
 11
599.7848894338962
 21
651.578285682985
 31
0.0
 12
598.0348894338962
 22
651.828285682985
 32
0.0
 13
598.2848894338962
 23
651.578285682985
 33
0.0
  0
LWPOLYLINE
  5
10A
330
1F
100
AcDbEntity
  8
_DEFAULT_CAD_LAYER
 62
     7
100
AcDbPolyline
 90
        8
 70
     1
 43
0.0
 10
598.2848894338962
 20
675.328285682985
 10
599.7848894338962
 20
675.328285682985
 10
600.0348894338962
 20
675.078285682985
 10
600.0348894338962
 20
651.828285682985
 10
599.7848894338962
 20
651.578285682985
 10
598.2848894338962
 20
651.578285682985
 10
598.0348894338962
 20
651.828285682985
 10
598.0348894338962
 20
675.078285682985
  0
SOLID
  5
10B
330
1F
100
AcDbEntity
  8
_DEFAULT_CAD_LAYER
 62
   252
100
AcDbTrace
 10
550.0348894338962
 20
675.0782856829851
 30
0.0
 11
550.2848894338962
 21
675.3282856829851
 31
0.0
 12
552.0348894338962
 22
675.0782856829851
 32
0.0
 13
551.7848894338962
 23
675.3282856829851
 33
0.0
  0
SOLID
  5
10C
330
1F
100
AcDbEntity
  8
_DEFAULT_CAD_LAYER
 62
   252
100
AcDbTrace
 10
550.0348894338962
 20
675.0782856829851
 30
0.0
 11
552.0348894338962
 21
675.0782856829851
 31
0.0
 12
551.7848894338962
 22
651.5782856829851
 32
0.0
 13
552.0348894338962
 23
651.8282856829851
 33
0.0
  0
SOLID
  5
10D
330
1F
100
AcDbEntity
  8
_DEFAULT_CAD_LAYER
 62
   252
100
AcDbTrace
 10
550.0348894338962
 20
675.0782856829851
 30
0.0
 11
551.7848894338962
 21
651.5782856829851
 31
0.0
 12
550.0348894338962
 22
651.8282856829851
 32
0.0
 13
550.2848894338962
 23
651.5782856829851
 33
0.0
  0
LWPOLYLINE
  5
10E
330
1F
100
AcDbEntity
  8
_DEFAULT_CAD_LAYER
 62
     7
100
AcDbPolyline
 90
        8
 70
     1
 43
0.0
 10
550.2848894338962
 20
675.3282856829851
 10
551.7848894338962
 20
675.3282856829851
 10
552.0348894338962
 20
675.0782856829851
 10
552.0348894338962
 20
651.8282856829851
 10
551.7848894338962
 20
651.5782856829851
 10
550.2848894338962
 20
651.5782856829851
 10
550.0348894338962
 20
651.8282856829851
 10
550.0348894338962
 20
675.0782856829851
  0
SOLID
  5
10F
330
1F
100
AcDbEntity
  8
_DEFAULT_CAD_LAYER
 62
   252
100
AcDbTrace
 10
582.0348894338962
 20
675.078285682985
 30
0.0
 11
582.2848894338962
 21
675.328285682985
 31
0.0
 12
584.0348894338962
 22
675.078285682985
 32
0.0
 13
583.7848894338962
 23
675.328285682985
 33
0.0
  0
SOLID
  5
110
330
1F
100
AcDbEntity
  8
_DEFAULT_CAD_LAYER
 62
   252
100
AcDbTrace
 10
582.0348894338962
 20
675.078285682985
 30
0.0
 11
584.0348894338962
 21
675.078285682985
 31
0.0
 12
583.7848894338962
 22
651.578285682985
 32
0.0
 13
584.0348894338962
 23
651.828285682985
 33
0.0
  0
SOLID
  5
111
330
1F
100
AcDbEntity
  8
_DEFAULT_CAD_LAYER
 62
   252
100
AcDbTrace
 10
582.0348894338962
 20
675.078285682985
 30
0.0
 11
583.7848894338962
 21
651.578285682985
 31
0.0
 12
582.0348894338962
 22
651.828285682985
 32
0.0
 13
582.2848894338962
 23
651.578285682985
 33
0.0
  0
LWPOLYLINE
  5
112
330
1F
100
AcDbEntity
  8
_DEFAULT_CAD_LAYER
 62
     7
100
AcDbPolyline
 90
        8
 70
     1
 43
0.0
 10
582.2848894338962
 20
675.328285682985
 10
583.7848894338962
 20
675.328285682985
 10
584.0348894338962
 20
675.078285682985
 10
584.0348894338962
 20
651.828285682985
 10
583.7848894338962
 20
651.578285682985
 10
582.2848894338962
 20
651.578285682985
 10
582.0348894338962
 20
651.828285682985
 10
582.0348894338962
 20
675.078285682985
  0
SOLID
  5
113
330
1F
100
AcDbEntity
  8
_DEFAULT_CAD_LAYER
 62
   252
100
AcDbTrace
 10
566.0348894338962
 20
675.078285682985
 30
0.0
 11
566.2848894338962
 21
675.328285682985
 31
0.0
 12
568.0348894338962
 22
675.078285682985
 32
0.0
 13
567.7848894338962
 23
675.328285682985
 33
0.0
  0
SOLID
  5
114
330
1F
100
AcDbEntity
  8
_DEFAULT_CAD_LAYER
 62
   252
100
AcDbTrace
 10
566.0348894338962
 20
675.078285682985
 30
0.0
 11
568.0348894338962
 21
675.078285682985
 31
0.0
 12
567.7848894338962
 22
651.578285682985
 32
0.0
 13
568.0348894338962
 23
651.828285682985
 33
0.0
  0
SOLID
  5
115
330
1F
100
AcDbEntity
  8
_DEFAULT_CAD_LAYER
 62
   252
100
AcDbTrace
 10
566.0348894338962
 20
675.078285682985
 30
0.0
 11
567.7848894338962
 21
651.578285682985
 31
0.0
 12
566.0348894338962
 22
651.828285682985
 32
0.0
 13
566.2848894338962
 23
651.578285682985
 33
0.0
  0
LWPOLYLINE
  5
116
330
1F
100
AcDbEntity
  8
_DEFAULT_CAD_LAYER
 62
     7
100
AcDbPolyline
 90
        8
 70
     1
 43
0.0
 10
566.2848894338962
 20
675.328285682985
 10
567.7848894338962
 20
675.328285682985
 10
568.0348894338962
 20
675.078285682985
 10
568.0348894338962
 20
651.828285682985
 10
567.7848894338962
 20
651.578285682985
 10
566.2848894338962
 20
651.578285682985
 10
566.0348894338962
 20
651.828285682985
 10
566.0348894338962
 20
675.078285682985
  0
LINE
  5
11A
330
1F
100
AcDbEntity
  8
Text
370
    15
100
AcDbLine
 10
483.7161866181107
 20
645.5308032147425
 30
0.0
 11
483.7615733693033
 21
646.5605799103499
 31
0.0
  0
LINE
  5
11B
330
1F
100
AcDbEntity
  8
Text
370
    15
100
AcDbLine
 10
483.7161866181107
 20
645.5308032147425
 30
0.0
 11
484.2408345494488
 21
646.4180712397173
 31
0.0
  0
LWPOLYLINE
  5
11C
330
1F
100
AcDbEntity
  8
Text
370
    15
100
AcDbPolyline
 90
        3
 70
     0
 43
0.0
 10
501.579271554868
 20
678.79815693757
 10
493.6082591474749
 20
678.79815693757
 10
483.7161866181107
 20
645.5308032147425
  0
MTEXT
  5
11D
330
1F
100
AcDbEntity
  8
Text
 62
   156
370
     9
100
AcDbMText
 10
498.0497538392456
 20
692.4581971629489
 30
0.0
 40
1.75
 41
58.36860874073329
 46
0.0
 71
     7
 72
     1
  1
\fArial|b0|i0|c0|p0;TO LOCATE ELECTRICAL BOXES WITHIN THE
 73
     1
 44
1.0
1001
CHIEFARC-LNWT
1070
    10
1001
CHIEFARC_RTFBINARY
1000

1001
CHIEFARC_SIMPLE_TEXT_BINARY
1000

1001
CHIEFARC_AUTOHEIGHT
1070
     0
1001
CHIEFARC_AUTOWIDTH
1070
     1
  0
MTEXT
  5
122
330
1F
100
AcDbEntity
  8
Text
 62
   156
370
     9
100
AcDbMText
 10
498.0497538392456
 20
689.395697162949
 30
0.0
 40
1.75
 41
58.36860874073329
 46
0.0
 71
     7
 72
     1
  1
\fArial|b0|i0|c0|p0;FIELD OF THE PANEL, PLACE WIRING WITHIN
 73
     1
 44
1.0
1001
CHIEFARC-LNWT
1070
    10
1001
CHIEFARC_RTFBINARY
1000

1001
CHIEFARC_SIMPLE_TEXT_BINARY
1000

1001
CHIEFARC_AUTOHEIGHT
1070
     0
1001
CHIEFARC_AUTOWIDTH
1070
     1
  0
MTEXT
  5
123
330
1F
100
AcDbEntity
  8
Text
 62
   156
370
     9
100
AcDbMText
 10
498.0497538392456
 20
687.0331971629489
 30
0.0
 40
1.75
 41
58.36860874073329
 46
0.0
 71
     7
 72
     1
  1
\fArial|b0|i0|c0|p0;CLOSEST CHASE.  CUT OUT FOR ELECTRICAL
 73
     1
 44
1.0
1001
CHIEFARC-LNWT
1070
    10
1001
CHIEFARC_RTFBINARY
1000

1001
CHIEFARC_SIMPLE_TEXT_BINARY
1000

1001
CHIEFARC_AUTOHEIGHT
1070
     0
1001
CHIEFARC_AUTOWIDTH
1070
     1
  0
MTEXT
  5
124
330
1F
100
AcDbEntity
  8
Text
 62
   156
370
     9
100
AcDbMText
 10
498.0497538392456
 20
683.970697162949
 30
0.0
 40
1.75
 41
58.36860874073329
 46
0.0
 71
     7
 72
     1
  1
\fArial|b0|i0|c0|p0;BOX, CUT OUT THE AREA UP TO THE CHASE. 
 73
     1
 44
1.0
1001
CHIEFARC-LNWT
1070
    10
1001
CHIEFARC_RTFBINARY
1000

1001
CHIEFARC_SIMPLE_TEXT_BINARY
1000

1001
CHIEFARC_AUTOHEIGHT
1070
     0
1001
CHIEFARC_AUTOWIDTH
1070
     1
  0
MTEXT
  5
125
330
1F
100
AcDbEntity
  8
Text
 62
   156
370
     9
100
AcDbMText
 10
498.0497538392456
 20
681.258197162949
 30
0.0
 40
1.75
 41
58.36860874073329
 46
0.0
 71
     7
 72
     1
  1
\fArial|b0|i0|c0|p0;INSTALL BOX, RUN WIRING, REPLACE FOAM
 73
     1
 44
1.0
1001
CHIEFARC-LNWT
1070
    10
1001
CHIEFARC_RTFBINARY
1000

1001
CHIEFARC_SIMPLE_TEXT_BINARY
1000

1001
CHIEFARC_AUTOHEIGHT
1070
     0
1001
CHIEFARC_AUTOWIDTH
1070
     1
  0
MTEXT
  5
126
330
1F
100
AcDbEntity
  8
Text
 62
   156
370
     9
100
AcDbMText
 10
498.0497538392456
 20
678.5456971629491
 30
0.0
 40
1.75
 41
58.36860874073329
 46
0.0
 71
     7
 72
     1
  1
\fArial|b0|i0|c0|p0;PIECE, AND GLUE IN PLACE.
 73
     1
 44
1.0
1001
CHIEFARC-LNWT
1070
    10
1001
CHIEFARC_RTFBINARY
1000

1001
CHIEFARC_SIMPLE_TEXT_BINARY
1000

1001
CHIEFARC_AUTOHEIGHT
1070
     0
1001
CHIEFARC_AUTOWIDTH
1070
     1
  0
MTEXT
  5
127
330
1F
100
AcDbEntity
  8
Text
 62
   156
370
     9
100
AcDbMText
 10
579.0459416097656
 20
686.5730878583508
 30
0.0
 40
1.75
 41
30.28757521672549
 46
0.0
 71
     7
 72
     1
  1
\fArial|b0|i0|c0|p0;WIRING CAN BE RUN IN
 73
     1
 44
1.0
1001
CHIEFARC-LNWT
1070
    10
1001
CHIEFARC_RTFBINARY
1000

1001
CHIEFARC_SIMPLE_TEXT_BINARY
1000

1001
CHIEFARC_AUTOHEIGHT
1070
     0
1001
CHIEFARC_AUTOWIDTH
1070
     1
  0
MTEXT
  5
128
330
1F
100
AcDbEntity
  8
Text
 62
   156
370
     9
100
AcDbMText
 10
579.0459416097656
 20
683.8605878583509
 30
0.0
 40
1.75
 41
30.28757521672549
 46
0.0
 71
     7
 72
     1
  1
\fArial|b0|i0|c0|p0;THE VERTICAL WIRING
 73
     1
 44
1.0
1001
CHIEFARC-LNWT
1070
    10
1001
CHIEFARC_RTFBINARY
1000

1001
CHIEFARC_SIMPLE_TEXT_BINARY
1000

1001
CHIEFARC_AUTOHEIGHT
1070
     0
1001
CHIEFARC_AUTOWIDTH
1070
     1
  0
MTEXT
  5
129
330
1F
100
AcDbEntity
  8
Text
 62
   156
370
     9
100
AcDbMText
 10
579.0459416097656
 20
681.1480878583509
 30
0.0
 40
1.75
 41
31.3075
 46
0.0
 71
     7
 72
     1
  1
\fArial|b0|i0|c0|p0;CHASES AND THEN INTO
 73
     1
 44
1.0
1001
CHIEFARC-LNWT
1070
    10
1001
CHIEFARC_RTFBINARY
1000

1001
CHIEFARC_SIMPLE_TEXT_BINARY
1000

1001
CHIEFARC-WIDTHEXPANDED
1070
     1
1001
CHIEFARC_AUTOHEIGHT
1070
     0
1001
CHIEFARC_AUTOWIDTH
1070
     1
  0
MTEXT
  5
12B
330
1F
100
AcDbEntity
  8
Text
 62
   156
370
     9
100
AcDbMText
 10
579.0459416097656
 20
678.4355878583509
 30
0.0
 40
1.75
 41
30.28757521672549
 46
0.0
 71
     7
 72
     1
  1
\fArial|b0|i0|c0|p0;THE CEILING
 73
     1
 44
1.0
1001
CHIEFARC-LNWT
1070
    10
1001
CHIEFARC_RTFBINARY
1000

1001
CHIEFARC_SIMPLE_TEXT_BINARY
1000

1001
CHIEFARC_AUTOHEIGHT
1070
     0
1001
CHIEFARC_AUTOWIDTH
1070
     1
  0
MTEXT
  5
12C
330
1F
100
AcDbEntity
  8
Text
 62
   156
370
     9
100
AcDbMText
 10
469.7650154693443
 20
574.3441782439396
 30
0.0
 40
1.75
 41
35.80613248198358
 46
0.0
 71
     7
 72
     1
  1
\fArial|b0|i0|c0|p0;WIRING CAN BE RUN IN THE
 73
     1
 44
1.0
1001
CHIEFARC-LNWT
1070
    10
1001
CHIEFARC_RTFBINARY
1000

1001
CHIEFARC_SIMPLE_TEXT_BINARY
1000

1001
CHIEFARC_AUTOHEIGHT
1070
     0
1001
CHIEFARC_AUTOWIDTH
1070
     1
  0
MTEXT
  5
12D
330
1F
100
AcDbEntity
  8
Text
 62
   156
370
     9
100
AcDbMText
 10
469.7650154693443
 20
571.6316782439396
 30
0.0
 40
1.75
 41
35.80613248198358
 46
0.0
 71
     7
 72
     1
  1
\fArial|b0|i0|c0|p0;HORIZONTAL WIRING
 73
     1
 44
1.0
1001
CHIEFARC-LNWT
1070
    10
1001
CHIEFARC_RTFBINARY
1000

1001
CHIEFARC_SIMPLE_TEXT_BINARY
1000

1001
CHIEFARC_AUTOHEIGHT
1070
     0
1001
CHIEFARC_AUTOWIDTH
1070
     1
  0
MTEXT
  5
12E
330
1F
100
AcDbEntity
  8
Text
 62
   156
370
     9
100
AcDbMText
 10
469.7650154693443
 20
568.9191782439397
 30
0.0
 40
1.75
 41
35.80613248198358
 46
0.0
 71
     7
 72
     1
  1
\fArial|b0|i0|c0|p0;CHASES FROM BOX TO BOX
 73
     1
 44
1.0
1001
CHIEFARC-LNWT
1070
    10
1001
CHIEFARC_RTFBINARY
1000

1001
CHIEFARC_SIMPLE_TEXT_BINARY
1000

1001
CHIEFARC_AUTOHEIGHT
1070
     0
1001
CHIEFARC_AUTOWIDTH
1070
     1
  0
MTEXT
  5
12F
330
1F
100
AcDbEntity
  8
Text
 62
   156
370
     9
100
AcDbMText
 10
469.7650154693443
 20
574.3441782439396
 30
0.0
 40
1.75
 41
35.80613248198358
 46
0.0
 71
     7
 72
     1
  1
\fArial|b0|i0|c0|p0;WIRING CAN BE RUN IN THE
 73
     1
 44
1.0
1001
CHIEFARC-LNWT
1070
    10
1001
CHIEFARC_RTFBINARY
1000

1001
CHIEFARC_SIMPLE_TEXT_BINARY
1000

1001
CHIEFARC_AUTOHEIGHT
1070
     0
1001
CHIEFARC_AUTOWIDTH
1070
     1
  0
MTEXT
  5
130
330
1F
100
AcDbEntity
  8
Text
 62
   156
370
     9
100
AcDbMText
 10
469.7650154693443
 20
571.6316782439396
 30
0.0
 40
1.75
 41
35.80613248198358
 46
0.0
 71
     7
 72
     1
  1
\fArial|b0|i0|c0|p0;HORIZONTAL WIRING
 73
     1
 44
1.0
1001
CHIEFARC-LNWT
1070
    10
1001
CHIEFARC_RTFBINARY
1000

1001
CHIEFARC_SIMPLE_TEXT_BINARY
1000

1001
CHIEFARC_AUTOHEIGHT
1070
     0
1001
CHIEFARC_AUTOWIDTH
1070
     1
  0
MTEXT
  5
131
330
1F
100
AcDbEntity
  8
Text
 62
   156
370
     9
100
AcDbMText
 10
469.7650154693443
 20
568.9191782439397
 30
0.0
 40
1.75
 41
35.80613248198358
 46
0.0
 71
     7
 72
     1
  1
\fArial|b0|i0|c0|p0;CHASES FROM BOX TO BOX
 73
     1
 44
1.0
1001
CHIEFARC-LNWT
1070
    10
1001
CHIEFARC_RTFBINARY
1000

1001
CHIEFARC_SIMPLE_TEXT_BINARY
1000

1001
CHIEFARC_AUTOHEIGHT
1070
     0
1001
CHIEFARC_AUTOWIDTH
1070
     1
  0
MTEXT
  5
132
330
1F
100
AcDbEntity
  8
Text
 62
   156
370
     9
100
AcDbMText
 10
469.7650154693443
 20
574.3441782439396
 30
0.0
 40
1.75
 41
35.80613248198358
 46
0.0
 71
     7
 72
     1
  1
\fArial|b0|i0|c0|p0;WIRING CAN BE RUN IN THE
 73
     1
 44
1.0
1001
CHIEFARC-LNWT
1070
    10
1001
CHIEFARC_RTFBINARY
1000

1001
CHIEFARC_SIMPLE_TEXT_BINARY
1000

1001
CHIEFARC_AUTOHEIGHT
1070
     0
1001
CHIEFARC_AUTOWIDTH
1070
     1
  0
MTEXT
  5
133
330
1F
100
AcDbEntity
  8
Text
 62
   156
370
     9
100
AcDbMText
 10
469.7650154693443
 20
571.6316782439396
 30
0.0
 40
1.75
 41
35.80613248198358
 46
0.0
 71
     7
 72
     1
  1
\fArial|b0|i0|c0|p0;HORIZONTAL WIRING
 73
     1
 44
1.0
1001
CHIEFARC-LNWT
1070
    10
1001
CHIEFARC_RTFBINARY
1000

1001
CHIEFARC_SIMPLE_TEXT_BINARY
1000

1001
CHIEFARC_AUTOHEIGHT
1070
     0
1001
CHIEFARC_AUTOWIDTH
1070
     1
  0
MTEXT
  5
134
330
1F
100
AcDbEntity
  8
Text
 62
   156
370
     9
100
AcDbMText
 10
469.7650154693443
 20
568.9191782439397
 30
0.0
 40
1.75
 41
35.80613248198358
 46
0.0
 71
     7
 72
     1
  1
\fArial|b0|i0|c0|p0;CHASES FROM BOX TO BOX
 73
     1
 44
1.0
1001
CHIEFARC-LNWT
1070
    10
1001
CHIEFARC_RTFBINARY
1000

1001
CHIEFARC_SIMPLE_TEXT_BINARY
1000

1001
CHIEFARC_AUTOHEIGHT
1070
     0
1001
CHIEFARC_AUTOWIDTH
1070
     1
  0
MTEXT
  5
135
330
1F
100
AcDbEntity
  8
Text
 62
   156
370
     9
100
AcDbMText
 10
569.326677092037
 20
571.8434069668483
 30
0.0
 40
1.75
 41
38.94750139536507
 46
0.0
 71
     7
 72
     1
  1
\fArial|b0|i0|c0|p0;CUT OUT FOAM FOR BOX,
 73
     1
 44
1.0
1001
CHIEFARC-LNWT
1070
    10
1001
CHIEFARC_RTFBINARY
1000

1001
CHIEFARC_SIMPLE_TEXT_BINARY
1000

1001
CHIEFARC_AUTOHEIGHT
1070
     0
1001
CHIEFARC_AUTOWIDTH
1070
     1
  0
MTEXT
  5
136
330
1F
100
AcDbEntity
  8
Text
 62
   156
370
     9
100
AcDbMText
 10
569.326677092037
 20
569.4809069668482
 30
0.0
 40
1.75
 41
38.94750139536507
 46
0.0
 71
     7
 72
     1
  1
\fArial|b0|i0|c0|p0;INCLUDING FOAM UP TO
 73
     1
 44
1.0
1001
CHIEFARC-LNWT
1070
    10
1001
CHIEFARC_RTFBINARY
1000

1001
CHIEFARC_SIMPLE_TEXT_BINARY
1000

1001
CHIEFARC_AUTOHEIGHT
1070
     0
1001
CHIEFARC_AUTOWIDTH
1070
     1
  0
MTEXT
  5
137
330
1F
100
AcDbEntity
  8
Text
 62
   156
370
     9
100
AcDbMText
 10
569.326677092037
 20
566.7684069668483
 30
0.0
 40
1.75
 41
38.94750139536507
 46
0.0
 71
     7
 72
     1
  1
\fArial|b0|i0|c0|p0;HORIZONTAL CHASE.  RUN
 73
     1
 44
1.0
1001
CHIEFARC-LNWT
1070
    10
1001
CHIEFARC_RTFBINARY
1000

1001
CHIEFARC_SIMPLE_TEXT_BINARY
1000

1001
CHIEFARC_AUTOHEIGHT
1070
     0
1001
CHIEFARC_AUTOWIDTH
1070
     1
  0
MTEXT
  5
138
330
1F
100
AcDbEntity
  8
Text
 62
   156
370
     9
100
AcDbMText
 10
569.326677092037
 20
564.0559069668483
 30
0.0
 40
1.75
 41
39.2525
 46
0.0
 71
     7
 72
     1
  1
\fArial|b0|i0|c0|p0;WIRING AND GLUE FOAM PIECE
 73
     1
 44
1.0
1001
CHIEFARC-LNWT
1070
    10
1001
CHIEFARC_RTFBINARY
1000

1001
CHIEFARC_SIMPLE_TEXT_BINARY
1000

1001
CHIEFARC-WIDTHEXPANDED
1070
     1
1001
CHIEFARC_AUTOHEIGHT
1070
     0
1001
CHIEFARC_AUTOWIDTH
1070
     1
  0
MTEXT
  5
139
330
1F
100
AcDbEntity
  8
Text
 62
   156
370
     9
100
AcDbMText
 10
569.326677092037
 20
561.3434069668483
 30
0.0
 40
1.75
 41
38.94750139536507
 46
0.0
 71
     7
 72
     1
  1
\fArial|b0|i0|c0|p0;BACK IN ABOVE ELECTRICAL
 73
     1
 44
1.0
1001
CHIEFARC-LNWT
1070
    10
1001
CHIEFARC_RTFBINARY
1000

1001
CHIEFARC_SIMPLE_TEXT_BINARY
1000

1001
CHIEFARC_AUTOHEIGHT
1070
     0
1001
CHIEFARC_AUTOWIDTH
1070
     1
  0
MTEXT
  5
13A
330
1F
100
AcDbEntity
  8
Text
 62
   156
370
     9
100
AcDbMText
 10
569.326677092037
 20
558.6309069668483
 30
0.0
 40
1.75
 41
38.94750139536507
 46
0.0
 71
     7
 72
     1
  1
\fArial|b0|i0|c0|p0;BOX.
 73
     1
 44
1.0
1001
CHIEFARC-LNWT
1070
    10
1001
CHIEFARC_RTFBINARY
1000

1001
CHIEFARC_SIMPLE_TEXT_BINARY
1000

1001
CHIEFARC_AUTOHEIGHT
1070
     0
1001
CHIEFARC_AUTOWIDTH
1070
     1
  0
MTEXT
  5
13B
330
1F
100
AcDbEntity
  8
Text
 62
   156
370
     9
100
AcDbMText
 10
490.0
 20
544.4520670391062
 30
0.0
 40
2.0
 41
94.60000000000004
 46
0.0
 71
     7
 72
     1
  1
\fArial|b0|i0|c0|p0;ISF 08.01.01     INSOFAST - ELECTRICAL - UTILIZING WIRING CHASES
 73
     1
 44
1.0
1001
CHIEFARC-LNWT
1070
    10
1001
CHIEFARC_RTFBINARY
1000

1001
CHIEFARC_SIMPLE_TEXT_BINARY
1000

1001
CHIEFARC-WIDTHEXPANDED
1070
     1
1001
CHIEFARC_AUTOHEIGHT
1070
     1
1001
CHIEFARC_AUTOWIDTH
1070
     1
  0
LINE
  5
13C
330
1F
100
AcDbEntity
  8
_DEFAULT_CAD_LAYER
  6
TinyDash
 62
     1
100
AcDbLine
 10
477.6642236621557
 20
602.823654263515
 30
0.0
 11
477.6642236621557
 21
598.427109673209
 31
0.0
  0
LINE
  5
13D
330
1F
100
AcDbEntity
  8
_DEFAULT_CAD_LAYER
  6
TinyDash
 62
     1
100
AcDbLine
 10
480.4265003113275
 20
602.7526146938612
 30
0.0
 11
480.4265003113275
 21
598.3560701035552
 31
0.0
  0
LWPOLYLINE
  5
13E
330
1F
100
AcDbEntity
  8
_DEFAULT_CAD_LAYER
 62
     2
370
    30
100
AcDbPolyline
 90
        6
 70
     0
 43
0.0
 10
584.10342945185
 20
603.2309729372389
 10
601.1799021433993
 20
603.2309729372389
 42
-0.2679491924311049
 10
601.6129148452915
 20
602.9809729372389
 10
602.0289068708637
 20
602.2604536134044
 42
-0.1316524975873838
 10
602.0958941689715
 20
602.0104536134044
 10
602.0958941689715
 20
597.1162176817688
  0
LINE
  5
13F
330
1F
100
AcDbEntity
  8
Text
370
    15
100
AcDbLine
 10
559.7143748840798
 20
662.316001597725
 30
0.0
 11
560.1574373093297
 21
663.24669794312
 31
0.0
  0
LINE
  5
140
330
1F
100
AcDbEntity
  8
Text
370
    15
100
AcDbLine
 10
559.7143748840798
 20
662.316001597725
 30
0.0
 11
560.543287068898
 21
662.9287042906029
 31
0.0
  0
LWPOLYLINE
  5
141
330
1F
100
AcDbEntity
  8
Text
370
    15
100
AcDbPolyline
 90
        3
 70
     0
 43
0.0
 10
577.3169525757718
 20
678.5303394971625
 10
573.0772354377754
 20
678.5303394971625
 10
559.7143748840798
 20
662.316001597725
  0
LINE
  5
142
330
1F
100
AcDbEntity
  8
Text
370
    15
100
AcDbLine
 10
533.5980035366018
 20
603.0566518957211
 30
0.0
 11
533.3596512375104
 21
602.0538118379262
 31
0.0
  0
LINE
  5
143
330
1F
100
AcDbEntity
  8
Text
370
    15
100
AcDbLine
 10
533.5980035366018
 20
603.0566518957211
 30
0.0
 11
532.9157679513823
 21
602.283958809004
 31
0.0
  0
LWPOLYLINE
  5
144
330
1F
100
AcDbEntity
  8
Text
370
    15
100
AcDbPolyline
 90
        3
 70
     0
 43
0.0
 10
503.5416138955936
 20
568.8510787048624
 10
515.8629157108728
 20
568.8510787048624
 10
533.5980035366018
 20
603.0566518957211
  0
LINE
  5
145
330
1F
100
AcDbEntity
  8
_DEFAULT_CAD_LAYER
  6
TinyDash
 62
     1
100
AcDbLine
 10
557.6642236621557
 20
602.823654263515
 30
0.0
 11
557.6642236621557
 21
598.427109673209
 31
0.0
  0
LINE
  5
146
330
1F
100
AcDbEntity
  8
_DEFAULT_CAD_LAYER
  6
TinyDash
 62
     1
100
AcDbLine
 10
560.4265003113275
 20
602.7526146938612
 30
0.0
 11
560.4265003113275
 21
598.3560701035552
 31
0.0
  0
LINE
  5
147
330
1F
100
AcDbEntity
  8
_DEFAULT_CAD_LAYER
  6
TinyDash
 62
     1
100
AcDbLine
 10
600.71192968975
 20
602.823654263515
 30
0.0
 11
600.71192968975
 21
598.427109673209
 31
0.0
  0
LINE
  5
148
330
1F
100
AcDbEntity
  8
_DEFAULT_CAD_LAYER
  6
TinyDash
 62
     1
100
AcDbLine
 10
603.4742063389218
 20
602.7526146938612
 30
0.0
 11
603.4742063389218
 21
598.3560701035552
 31
0.0
  0
LINE
  5
149
330
1F
100
AcDbEntity
  8
Text
370
    15
100
AcDbLine
 10
533.5980035366018
 20
603.0566518957211
 30
0.0
 11
533.3596512375104
 21
602.0538118379262
 31
0.0
  0
LINE
  5
14A
330
1F
100
AcDbEntity
  8
Text
370
    15
100
AcDbLine
 10
533.5980035366018
 20
603.0566518957211
 30
0.0
 11
532.9157679513823
 21
602.283958809004
 31
0.0
  0
LWPOLYLINE
  5
14B
330
1F
100
AcDbEntity
  8
Text
370
    15
100
AcDbPolyline
 90
        3
 70
     0
 43
0.0
 10
503.5416138955936
 20
568.8510787048624
 10
515.8629157108728
 20
568.8510787048624
 10
533.5980035366018
 20
603.0566518957211
  0
LINE
  5
14C
330
1F
100
AcDbEntity
  8
Text
370
    15
100
AcDbLine
 10
533.5980035366018
 20
603.0566518957211
 30
0.0
 11
533.3596512375104
 21
602.0538118379262
 31
0.0
  0
LINE
  5
14D
330
1F
100
AcDbEntity
  8
Text
370
    15
100
AcDbLine
 10
533.5980035366018
 20
603.0566518957211
 30
0.0
 11
532.9157679513823
 21
602.283958809004
 31
0.0
  0
LWPOLYLINE
  5
14E
330
1F
100
AcDbEntity
  8
Text
370
    15
100
AcDbPolyline
 90
        3
 70
     0
 43
0.0
 10
503.5416138955936
 20
568.8510787048624
 10
515.8629157108728
 20
568.8510787048624
 10
533.5980035366018
 20
603.0566518957211
  0
LINE
  5
14F
330
1F
100
AcDbEntity
  8
Text
370
    15
100
AcDbLine
 10
560.541195825119
 20
600.1577128748231
 30
0.0
 11
560.9306429150138
 21
599.2033382292188
 31
0.0
  0
LINE
  5
150
330
1F
100
AcDbEntity
  8
Text
370
    15
100
AcDbLine
 10
560.541195825119
 20
600.1577128748231
 30
0.0
 11
560.4357081300359
 21
599.1323483805159
 31
0.0
  0
LWPOLYLINE
  5
151
330
1F
100
AcDbEntity
  8
Text
370
    15
100
AcDbPolyline
 90
        3
 70
     0
 43
0.0
 10
568.4486737448368
 20
566.700307427771
 10
565.3400829164465
 20
566.700307427771
 10
560.541195825119
 20
600.1577128748231
  0
ENDSEC
  0
SECTION
  2
OBJECTS
  0
DICTIONARY
  5
C
330
0
100
AcDbDictionary
281
     1
  3
ACAD_GROUP
350
D
  3
ACAD_LAYOUT
350
1A
  3
ACAD_MLEADERSTYLE
350
153
  3
ACAD_MLINESTYLE
350
17
  3
ACAD_PLOTSETTINGS
350
19
  3
ACAD_PLOTSTYLENAME
350
E
  3
ACAD_TABLESTYLE
350
152
  3
ACAD_VISUALSTYLE
350
2A
  0
DICTIONARY
  5
D
102
{ACAD_REACTORS
330
C
102
}
330
C
100
AcDbDictionary
281
     1
  0
DICTIONARY
  5
1A
102
{ACAD_REACTORS
330
C
102
}
330
C
100
AcDbDictionary
281
     1
  3
Layout1
350
1E
  3
Layout2
350
26
  3
Model
350
22
  0
DICTIONARY
  5
153
102
{ACAD_REACTORS
330
C
102
}
330
C
100
AcDbDictionary
281
     1
  0
DICTIONARY
  5
17
102
{ACAD_REACTORS
330
C
102
}
330
C
100
AcDbDictionary
281
     1
  3
Standard
350
18
  0
DICTIONARY
  5
19
102
{ACAD_REACTORS
330
C
102
}
330
C
100
AcDbDictionary
281
     1
  0
ACDBDICTIONARYWDFLT
  5
E
102
{ACAD_REACTORS
330
C
102
}
330
C
100
AcDbDictionary
281
     1
  3
Normal
350
F
100
AcDbDictionaryWithDefault
340
F
  0
DICTIONARY
  5
152
102
{ACAD_REACTORS
330
C
102
}
330
C
100
AcDbDictionary
281
     1
  0
DICTIONARY
  5
2A
102
{ACAD_REACTORS
330
C
102
}
330
C
100
AcDbDictionary
281
     1
  3
2dWireframe
350
2F
  3
3D Hidden
350
31
  3
3dWireframe
350
30
  3
Basic
350
32
  3
Brighten
350
36
  3
ColorChange
350
3A
  3
Conceptual
350
34
  3
Dim
350
35
  3
Facepattern
350
39
  3
Flat
350
2B
  3
FlatWithEdges
350
2C
  3
Gouraud
350
2D
  3
GouraudWithEdges
350
2E
  3
Linepattern
350
38
  3
Realistic
350
33
  3
Thicken
350
37
  0
LAYOUT
  5
1E
102
{ACAD_REACTORS
330
1A
102
}
330
1A
100
AcDbPlotSettings
  1

  2
none_device
  4

  6

 40
0.0
 41
0.0
 42
0.0
 43
0.0
 44
0.0
 45
0.0
 46
0.0
 47
0.0
 48
0.0
 49
0.0
140
0.0
141
0.0
142
1.0
143
1.0
 70
   688
 72
     0
 73
     0
 74
     5
  7

 75
    16
 76
     0
 77
     2
 78
   300
147
1.0
148
0.0
149
0.0
100
AcDbLayout
  1
Layout1
 70
     1
 71
     1
 10
0.0
 20
0.0
 11
12.0
 21
9.0
 12
0.0
 22
0.0
 32
0.0
 14
1.000000000000000E+20
 24
1.000000000000000E+20
 34
1.000000000000000E+20
 15
-1.000000000000000E+20
 25
-1.000000000000000E+20
 35
-1.000000000000000E+20
146
0.0
 13
0.0
 23
0.0
 33
0.0
 16
1.0
 26
0.0
 36
0.0
 17
0.0
 27
1.0
 37
0.0
 76
     0
330
1B
  0
LAYOUT
  5
26
102
{ACAD_REACTORS
330
1A
102
}
330
1A
100
AcDbPlotSettings
  1

  2
none_device
  4

  6

 40
0.0
 41
0.0
 42
0.0
 43
0.0
 44
0.0
 45
0.0
 46
0.0
 47
0.0
 48
0.0
 49
0.0
140
0.0
141
0.0
142
1.0
143
1.0
 70
   688
 72
     0
 73
     0
 74
     5
  7

 75
    16
 76
     0
 77
     2
 78
   300
147
1.0
148
0.0
149
0.0
100
AcDbLayout
  1
Layout2
 70
     1
 71
     2
 10
0.0
 20
0.0
 11
0.0
 21
0.0
 12
0.0
 22
0.0
 32
0.0
 14
0.0
 24
0.0
 34
0.0
 15
0.0
 25
0.0
 35
0.0
146
0.0
 13
0.0
 23
0.0
 33
0.0
 16
1.0
 26
0.0
 36
0.0
 17
0.0
 27
1.0
 37
0.0
 76
     0
330
23
  0
LAYOUT
  5
22
102
{ACAD_REACTORS
330
1A
102
}
330
1A
100
AcDbPlotSettings
  1

  2
none_device
  4

  6

 40
0.0
 41
0.0
 42
0.0
 43
0.0
 44
0.0
 45
0.0
 46
0.0
 47
0.0
 48
0.0
 49
0.0
140
0.0
141
0.0
142
1.0
143
1.0
 70
  1712
 72
     0
 73
     0
 74
     0
  7

 75
     0
 76
     0
 77
     2
 78
   300
147
1.0
148
0.0
149
0.0
100
AcDbLayout
  1
Model
 70
     1
 71
     0
 10
0.0
 20
0.0
 11
12.0
 21
9.0
 12
0.0
 22
0.0
 32
0.0
 14
0.0
 24
1.0
 34
0.0
 15
1.0
 25
0.0
 35
0.0
146
0.0
 13
0.0
 23
0.0
 33
0.0
 16
1.0
 26
0.0
 36
0.0
 17
0.0
 27
1.0
 37
0.0
 76
     0
330
1F
331
29
  0
MLINESTYLE
  5
18
102
{ACAD_REACTORS
330
17
102
}
330
17
100
AcDbMlineStyle
  2
Standard
 70
     0
  3

 62
   256
 51
90.0
 52
90.0
 71
     2
 49
0.5
 62
   256
  6
BYLAYER
 49
-0.5
 62
   256
  6
BYLAYER
  0
ACDBPLACEHOLDER
  5
F
102
{ACAD_REACTORS
330
E
102
}
330
E
  0
VISUALSTYLE
  5
2F
102
{ACAD_REACTORS
330
2A
102
}
330
2A
100
AcDbVisualStyle
  2
2dWireframe
 70
     4
 71
     0
 72
     2
 73
     0
 90
        0
 40
-0.6
 41
-30.0
 62
     5
 63
     7
421
 16777215
 74
     1
 91
        4
 64
     7
 65
   257
 75
     1
175
     1
 42
1.0
 92
        0
 66
   257
 43
1.0
 76
     1
 77
     6
 78
     2
 67
     7
 79
     5
170
     0
171
     0
290
     0
174
     0
 93
        1
 44
0.0
173
     0
291
     0
 45
0.0
  0
VISUALSTYLE
  5
31
102
{ACAD_REACTORS
330
2A
102
}
330
2A
100
AcDbVisualStyle
  2
3D Hidden
 70
     6
 71
     1
 72
     2
 73
     2
 90
        0
 40
-0.6
 41
-30.0
 62
     5
 63
     7
421
 16777215
 74
     2
 91
        2
 64
     7
 65
   257
 75
     2
175
     1
 42
40.0
 92
        0
 66
   257
 43
1.0
 76
     1
 77
     6
 78
     2
 67
     7
 79
     3
170
     0
171
     0
290
     0
174
     0
 93
        1
 44
0.0
173
     0
291
     0
 45
0.0
  0
VISUALSTYLE
  5
30
102
{ACAD_REACTORS
330
2A
102
}
330
2A
100
AcDbVisualStyle
  2
3dWireframe
 70
     5
 71
     0
 72
     2
 73
     0
 90
        0
 40
-0.6
 41
-30.0
 62
     5
 63
     7
421
 16777215
 74
     1
 91
        4
 64
     7
 65
   257
 75
     1
175
     1
 42
1.0
 92
        0
 66
   257
 43
1.0
 76
     1
 77
     6
 78
     2
 67
     7
 79
     5
170
     0
171
     0
290
     0
174
     0
 93
        1
 44
0.0
173
     0
291
     0
 45
0.0
  0
VISUALSTYLE
  5
32
102
{ACAD_REACTORS
330
2A
102
}
330
2A
100
AcDbVisualStyle
  2
Basic
 70
     7
 71
     1
 72
     0
 73
     1
 90
        0
 40
-0.6
 41
-30.0
 62
     5
 63
     7
421
 16777215
 74
     0
 91
        4
 64
     7
 65
   257
 75
     1
175
     1
 42
1.0
 92
        8
 66
     7
 43
1.0
 76
     1
 77
     6
 78
     2
 67
     7
 79
     5
170
     0
171
     0
290
     0
174
     0
 93
        1
 44
0.0
173
     0
291
     1
 45
0.0
  0
VISUALSTYLE
  5
36
102
{ACAD_REACTORS
330
2A
102
}
330
2A
100
AcDbVisualStyle
  2
Brighten
 70
    12
 71
     2
 72
     2
 73
     0
 90
        0
 40
-0.6
 41
-30.0
 62
     5
 63
     7
421
 16777215
 74
     1
 91
        4
 64
     7
 65
   257
 75
     1
175
     1
 42
1.0
 92
        8
 66
     7
 43
1.0
 76
     1
 77
     6
 78
     2
 67
     7
 79
     5
170
     0
171
     0
290
     0
174
     0
 93
        1
 44
50.0
173
     0
291
     1
 45
0.0
  0
VISUALSTYLE
  5
3A
102
{ACAD_REACTORS
330
2A
102
}
330
2A
100
AcDbVisualStyle
  2
ColorChange
 70
    16
 71
     2
 72
     2
 73
     3
 90
        0
 40
-0.6
 41
-30.0
 62
     5
 63
     8
421
  8421504
 74
     1
 91
        4
 64
     7
 65
   257
 75
     1
175
     1
 42
1.0
 92
        8
 66
     8
424
  8421504
 43
1.0
 76
     1
 77
     6
 78
     2
 67
     7
 79
     5
170
     0
171
     0
290
     0
174
     0
 93
        1
 44
0.0
173
     0
291
     1
 45
0.0
  0
VISUALSTYLE
  5
34
102
{ACAD_REACTORS
330
2A
102
}
330
2A
100
AcDbVisualStyle
  2
Conceptual
 70
     9
 71
     3
 72
     2
 73
     0
 90
        0
 40
-0.6
 41
-30.0
 62
     5
 63
     7
421
 16777215
 74
     2
 91
        2
 64
     7
 65
   257
 75
     1
175
     1
 42
40.0
 92
        8
 66
     7
 43
1.0
 76
     1
 77
     6
 78
     2
 67
     7
 79
     3
170
     0
171
     0
290
     0
174
     0
 93
        1
 44
0.0
173
     0
291
     0
 45
0.0
  0
VISUALSTYLE
  5
35
102
{ACAD_REACTORS
330
2A
102
}
330
2A
100
AcDbVisualStyle
  2
Dim
 70
    11
 71
     2
 72
     2
 73
     0
 90
        0
 40
-0.6
 41
-30.0
 62
     5
 63
     7
421
 16777215
 74
     1
 91
        4
 64
     7
 65
   257
 75
     1
175
     1
 42
1.0
 92
        8
 66
     7
 43
1.0
 76
     1
 77
     6
 78
     2
 67
     7
 79
     5
170
     0
171
     0
290
     0
174
     0
 93
        1
 44
-50.0
173
     0
291
     1
 45
0.0
  0
VISUALSTYLE
  5
39
102
{ACAD_REACTORS
330
2A
102
}
330
2A
100
AcDbVisualStyle
  2
Facepattern
 70
    15
 71
     2
 72
     2
 73
     0
 90
        0
 40
-0.6
 41
-30.0
 62
     5
 63
     7
421
 16777215
 74
     1
 91
        4
 64
     7
 65
   257
 75
     1
175
     1
 42
1.0
 92
        8
 66
     7
 43
1.0
 76
     1
 77
     6
 78
     2
 67
     7
 79
     5
170
     0
171
     0
290
     0
174
     0
 93
        1
 44
0.0
173
     0
291
     1
 45
0.0
  0
VISUALSTYLE
  5
2B
102
{ACAD_REACTORS
330
2A
102
}
330
2A
100
AcDbVisualStyle
  2
Flat
 70
     0
 71
     2
 72
     1
 73
     1
 90
        2
 40
-0.6
 41
30.0
 62
     5
 63
     7
421
 16777215
 74
     0
 91
        4
 64
     7
 65
   257
 75
     1
175
     1
 42
1.0
 92
        8
 66
     7
 43
1.0
 76
     1
 77
     6
 78
     2
 67
     7
 79
     5
170
     0
171
     0
290
     0
174
     0
 93
       13
 44
0.0
173
     0
291
     1
 45
0.0
  0
VISUALSTYLE
  5
2C
102
{ACAD_REACTORS
330
2A
102
}
330
2A
100
AcDbVisualStyle
  2
FlatWithEdges
 70
     1
 71
     2
 72
     1
 73
     1
 90
        2
 40
-0.6
 41
30.0
 62
     5
 63
     7
421
 16777215
 74
     1
 91
        4
 64
     7
 65
   257
 75
     1
175
     1
 42
1.0
 92
        0
 66
   257
 43
1.0
 76
     1
 77
     6
 78
     2
 67
     7
 79
     5
170
     0
171
     0
290
     0
174
     0
 93
       13
 44
0.0
173
     0
291
     1
 45
0.0
  0
VISUALSTYLE
  5
2D
102
{ACAD_REACTORS
330
2A
102
}
330
2A
100
AcDbVisualStyle
  2
Gouraud
 70
     2
 71
     2
 72
     2
 73
     1
 90
        2
 40
-0.6
 41
30.0
 62
     5
 63
     7
421
 16777215
 74
     0
 91
        4
 64
     7
 65
   257
 75
     1
175
     1
 42
1.0
 92
        0
 66
     7
 43
1.0
 76
     1
 77
     6
 78
     2
 67
     7
 79
     5
170
     0
171
     0
290
     0
174
     0
 93
       13
 44
0.0
173
     0
291
     1
 45
0.0
  0
VISUALSTYLE
  5
2E
102
{ACAD_REACTORS
330
2A
102
}
330
2A
100
AcDbVisualStyle
  2
GouraudWithEdges
 70
     3
 71
     2
 72
     2
 73
     1
 90
        2
 40
-0.6
 41
30.0
 62
     5
 63
     7
421
 16777215
 74
     1
 91
        4
 64
     7
 65
   257
 75
     1
175
     1
 42
1.0
 92
        0
 66
   257
 43
1.0
 76
     1
 77
     6
 78
     2
 67
     7
 79
     5
170
     0
171
     0
290
     0
174
     0
 93
       13
 44
0.0
173
     0
291
     1
 45
0.0
  0
VISUALSTYLE
  5
38
102
{ACAD_REACTORS
330
2A
102
}
330
2A
100
AcDbVisualStyle
  2
Linepattern
 70
    14
 71
     2
 72
     2
 73
     0
 90
        0
 40
-0.6
 41
-30.0
 62
     5
 63
     7
421
 16777215
 74
     1
 91
        4
 64
     7
 65
   257
 75
     7
175
     7
 42
1.0
 92
        8
 66
     7
 43
1.0
 76
     1
 77
     6
 78
     2
 67
     7
 79
     5
170
     0
171
     0
290
     0
174
     0
 93
        1
 44
0.0
173
     0
291
     1
 45
0.0
  0
VISUALSTYLE
  5
33
102
{ACAD_REACTORS
330
2A
102
}
330
2A
100
AcDbVisualStyle
  2
Realistic
 70
     8
 71
     2
 72
     2
 73
     0
 90
        0
 40
-0.6
 41
-30.0
 62
     5
 63
     7
421
 16777215
 74
     1
 91
        0
 64
     7
 65
   257
 75
     1
175
     1
 42
1.0
 92
        8
 66
     8
424
  7895160
 43
1.0
 76
     1
 77
     6
 78
     2
 67
     7
 79
     5
170
     0
171
     0
290
     0
174
     0
 93
       13
 44
0.0
173
     0
291
     0
 45
0.0
  0
VISUALSTYLE
  5
37
102
{ACAD_REACTORS
330
2A
102
}
330
2A
100
AcDbVisualStyle
  2
Thicken
 70
    13
 71
     2
 72
     2
 73
     0
 90
        0
 40
-0.6
 41
-30.0
 62
     5
 63
     7
421
 16777215
 74
     1
 91
        4
 64
     7
 65
   257
 75
     1
175
     1
 42
1.0
 92
       12
 66
     7
 43
1.0
 76
     1
 77
     6
 78
     2
 67
     7
 79
     5
170
     0
171
     0
290
     0
174
     0
 93
        1
 44
0.0
173
     0
291
     1
 45
0.0
  0
ENDSEC
  0
EOF
